» » »

Go Tabs (ver.1)

Artists:  A B C D E F G H I J K L M N O P Q R S T U V W X Y Z # 

Go Tabs (ver.1)

Blink
Rating:
0/5 (0 votes)

Tabs too difficult? Try these video lessons and learn fast.
                100% correct
Intro:
e|---------------------------------------------------------------------|
B|---------------------------------------------------------------------|
G|-9999999999999999------------------9999999999999999------------------|
D|-xxxxxxxxxxxxxxxx------------------xxxxxxxxxxxxxxxx------------------|
A|-7777777777777777-3333333333333333-7777777777777777-3333333333333333-|
E|-8888888888888888-1111111111111111-8888888888888888-1111111111111111-|


Verse:
e|----------------------------------------------------------------------|
B|----------------------------------------------------------------------|
G|----------------------------------------------------------------------|
D|----------------------------------------------------------------------|
A|-33333333-2-5---------------------------------------------------------|
E|--------------11111111------------------------------------------------|
   ^DO UP AND DOWN PICKING!!!!!!^
Verse:
e|----------------------------------------------------------------------|
B|----------------------------------------------------------------------|
G|----------------------------------------------------------------------|
D|----------------------------------------------------------------------|
A|-33333333-2-5---------------------------------------------------------|
E|--------------11111111------------------------------------------------|
   ^DO UP AND DOWN PICKING!!!!!!^

Chorus:                              
e|------------------------------------------------------------------------|
B|------------------------------------------------------------------------|
G|------------------------------------------------------------------------|
D|-2222222222222222------------------2222222222222222---------------------|
A|-0000000000000000-3333333333333333-0000000000000000-3333333333333333----|
E|------------------1111111111111111------------------1111111111111111----|



Intro again:
e|---------------------------------------------------------------------|
B|---------------------------------------------------------------------|
G|-9999999999999999------------------9999999999999999------------------|
D|-xxxxxxxxxxxxxxxx------------------xxxxxxxxxxxxxxxx------------------|
A|-7777777777777777-3333333333333333-7777777777777777-3333333333333333-|
E|-8888888888888888-1111111111111111-8888888888888888-1111111111111111-|

Verse:
e|----------------------------------------------------------------------|
B|----------------------------------------------------------------------|
G|----------------------------------------------------------------------|
D|----------------------------------------------------------------------|
A|-33333333-2-5---------------------------------------------------------|
E|--------------11111111------------------------------------------------|
   ^DO UP AND DOWN PICKING!!!!!!^
Verse:
e|----------------------------------------------------------------------|
B|----------------------------------------------------------------------|
G|----------------------------------------------------------------------|
D|----------------------------------------------------------------------|
A|-33333333-2-5---------------------------------------------------------|
E|--------------11111111------------------------------------------------|
   ^DO UP AND DOWN PICKING!!!!!!^
Chorus:                        
e|------------------------------------------------------------------------|
B|------------------------------------------------------------------------|
G|------------------------------------------------------------------------|
D|-2222222222222222------------------2222222222222222---------------------|
A|-0000000000000000-3333333333333333-0000000000000000-3333333333333333----|
E|------------------1111111111111111------------------1111111111111111----|



 Solo:
e|--------------------------------------------------------------------|
B|--------------------------------------------------------------------|
G|--------------------------------------------------------------------|
D|--------------------------------------------------------------------|
A|--3~/~5~/~7~~~~~~~~~~3~2~~3~~~5~~~3~~~~~~~~~~3~/~5~\~3~3~~~2/3~~~~~~|
E|--------------------------------------------------------------------|

e|-------------------------------------------------------|
B|-------------------------------------------------------|
G|---------------------------------pickscr*pe------------|
D|--------------------------x\\\\\\\\\\\\\\\\\\\\\2~:----|
A|-feedback~~~~~~~~~~~~~~~~~x\\\\\\\\\\\\\\\\\\\\\0~:----|
E|-------------------------------------------------------|

e|------------------------------------------------------------------------|
B|------------------------------------------------------------------------|
G|------------------------------------------------------------------------|
D|-2222222222222222------------------2222222222222222---------------------|
A|-0000000000000000-3333333333333333-0000000000000000-3333333333333333----|
E|------------------1111111111111111------------------1111111111111111----|


Ending:
e|----------------------------------------|
B|----------------------------------------|
G|-9999999999999999-55~~577~~799~~91010~--|
D|-xxxxxxxxxxxxxxxx-xx~~xxx~~xxx~~x-x-x~--| x3
A|-7777777777777777-33~~355~~577~~7-8-8---|
E|-8888888888888888-----------------------|

e|----------------------------------------|
B|----------------------------------------|
G|-9999999999999999-----------------------|
D|-xxxxxxxxxxxxxxxx-3~~~~~~~~~~~~~~~------| 
A|-7777777777777777-3~~~~~~~~~~~~~~~------|
E|-8888888888888888-1~~~~~~~~~~~~~~~------|
            
Tabs too difficult? Try these video lessons and learn fast.


comments powered by Disqus
↑ Back to top | Tablatures and chords are parodies/interpretations of the original songs. You may use it for private study, scholarship, research or language learning purposes only