» » »

Carousel Intro Buddha Tabs (ver.1)

Artists:  A B C D E F G H I J K L M N O P Q R S T U V W X Y Z # 

Carousel Intro Buddha Tabs (ver.1)

Blink
Rating:
0/5 (0 votes)

Hard to play? Try these video lessons and learn fast.
                Standard Tuning Blah Blah Blah
                               x2
E|------------------------------------------------------------------|
B|------------------------------------------------------------------|
G|------------------------------------------------------------------|
D|---4-4-5-7-5-4-0-------------------2-2-4-5-4-2-4-0-0-0------------|
A|-5-----------------4-4-5-7-5-4-2-2--------------------------------|
E|-----------------5------------------------------------------------|

D|4-4-4-4-4-2-2-2-2-2-8-8-8-8-8-2-2-2-2-2-6-6-6-6-6-4-4-4-4-4-------|
A|0-0-0-0-0-0-0-0-0-0-6-6-6-6-6-0-0-0-0-0-4-4-4-4-4-2-2-2-2-2-------|

                      x6
D|8-8-8-8-8-4-4-4-4-4-
A|6-6-6-6-6-2-2-2-2-2-
            
Hard to play? Try these video lessons and learn fast. | Correct




comments powered by Disqus
↑ Back to top | Tablatures and chords are parodies/interpretations of the original songs. You may use it for private study, scholarship, research or language learning purposes only