» » »

Easy Target Tabs (ver.2)

Artists:  A B C D E F G H I J K L M N O P Q R S T U V W X Y Z # 

Easy Target Tabs (ver.2)

Blink
Rating:
0/5 (0 votes)
Tabs too difficult? Try these video lessons and learn fast.
                
Intro:4x (just drums first for like 8 seconds)
e-------------------------------------
B-----------------2-2-2-2-2-2---------
G-----------------2-2-2-2-2-2---------
D-4-4-4-4-4-4-4-4-0-0-0-0-0-0-2-2-2-2-
A-4-4-4-4-4-4-4-4-------------2-2-2-2-
E-2-2-2-2-2-2-2-2-------------0-0-0-0-


Verse:4x
e--------------------------------------------
B--------------------------------------------
G-6-6-6-6-6-6-6-6-6-6-4-4-4-6-6-6-2~~~-------
D-x-x-x-x-x-x-x-x-x-x-x-x-x-x-x-x-x----------
A-4-4-4-4-4-4-4-4-4-4-2-2-2-4-4-4-0~~~-------
E--------------------------------------------

Chorus:4x
e-------------------------------------
B-----------------2-2-2-2-2-2---------
G-----------------2-2-2-2-2-2---------
D-4-4-4-4-4-4-4-4-0-0-0-0-0-0-2-2-2-2-
A-4-4-4-4-4-4-4-4-------------2-2-2-2-
E-2-2-2-2-2-2-2-2-------------0-0-0-0-


Verse:2x (Mark and Travis play for half of this verse, and then Tom comes in with the guitar but very lightly)             
e----------------------------------|------------------
B----------------------------------|----Play this 2x--
G-6~~------------------------------|-6~~-\4/6\2~~-----
D-x--let it ring until Tom comes in|-x----x-x-x-------
A-4~~------------------------------|-4~~-\2/4\0~~-----
E----------------------------------|------------------

Chorus:4x
e-------------------------------------
B-----------------2-2-2-2-2-2---------
G-----------------2-2-2-2-2-2---------
D-4-4-4-4-4-4-4-4-0-0-0-0-0-0-2-2-2-2-
A-4-4-4-4-4-4-4-4-------------2-2-2-2-
E-2-2-2-2-2-2-2-2-------------0-0-0-0-

Bridge:play this part 3x          | Play this part 1x  
e---------------------------------|---------------------------------
B---------------------------------|---------------------------------
G-7-7-7-7-7-7-7-7-----------------|-7-7-7-7-7-7-7-7-6-6-6-6-6-6-6-6-
D-7-7-7-7-7-7-7-7-7-7-7-7-2-2-2-2-|-7-7-7-7-7-7-7-7-7-7-7-7-7-7-7-7-
A-5-5-5-5-5-5-5-5-7-7-7-7-2-2-2-2-|-5-5-5-5-5-5-5-5-4-4-4-4-4-4-4-4-
E-----------------5-5-5-5-0-0-0-0-|---------------------------------

Outro:Play this as many times as you need to...
e--------------------------------------------------
B--------------------------------------------------
G--------------------------------------------------
D-4/6/7/9\7-7/12\11-11/12\9-9----------------------
A-x-x-x-x-x-x-x--x--x--x--x-x----------------------
E-2/4/5/7\5-5/10\9--9-/10\7-7----------------------

Well thats it, I found this song easy to play by ear, but it's a really good song. I'm not sure if the Outro is right, but i know it's close to what Tom plays. If you find the right way to play it please fix it. Thanks
            
Tabs too difficult? Try these video lessons and learn fast.


comments powered by Disqus
↑ Back to top | Tablatures and chords are parodies/interpretations of the original songs. You may use it for private study, scholarship, research or language learning purposes only