» » »

Blink, Easy Target Tabs (ver.3)

Artists:  A B C D E F G H I J K L M N O P Q R S T U V W X Y Z # 

Easy Target Tabs (ver.3)

Blink Tabs
 Rating:
4/5 (4 votes)
Easy Target lessons Tabs too difficult? Try these video lessons and learn fast
1
                Easy Target
Blink 182- Self Titled

This is a fairly easy song..... i got it almost my first try
ENJOY THE NEW ALBUM.... 11/18/03

/=slide up
\=slide down
()=ghost note, dont hit
Intro part 1:
Just drums......

Intro pt.2:
e|---------------------------------|
B|---------------------------------|
G|-----------------2-2-2-2---------|
D|-4-4-4-4-4-4-4-4-2-2-2-2-2-2-2-2-|
A|-4-4-4-4-4-4-4-4-0-0-0-0-2-2-2-2-| x4
E|-2-2-2-2-2-2-2-2---------0-0-0-0-|

Verse 1:
e|-------------------------------------------------|
B|-------------------------------------------------|
G|-6-6-6-6-6-6-6-6-6-6-6-6--4-4-4-4/6-6-6-6--2-----|
D|-x-x-x-x-x-x-x-x-x-x-x-x--x-x-x-x/x-x-x-x--x-----| x4
A|-4-4-4-4-4-4-4-4-4-4-4-4--2-2-2-2/4-4-4-4--0-----|
E|-------------------------------------------------|

Chorus:
e|---------------------------------|
B|---------------------------------|
G|-----------------2-2-2-2---------|
D|-4-4-4-4-4-4-4-4-2-2-2-2-2-2-2-2-|
A|-4-4-4-4-4-4-4-4-0-0-0-0-2-2-2-2-| x4
E|-2-2-2-2-2-2-2-2---------0-0-0-0-|

Verse 2: first 2 repeats is just bass n drums
e|-------------------------------------|
B|-------------------------------------|
G|-6-----------------------4/6--2------|
D|-x---let ring------------x/x--x------|
A|-4-----------------------2/4--0------| x2
E|-------------------------------------|

Chorus:
e|---------------------------------|
B|---------------------------------|
G|-----------------2-2-2-2---------|
D|-4-4-4-4-4-4-4-4-2-2-2-2-2-2-2-2-|
A|-4-4-4-4-4-4-4-4-0-0-0-0-2-2-2-2-| x4
E|-2-2-2-2-2-2-2-2---------0-0-0-0-|

Bridge:

e|---------------------------------|
B|---------------------------------|
G|-7-7-7-7-7-7-7-7-----------------|
D|-7-7-7-7-7-7-7-7-7-7-7-7-2-2-2-2-|
A|-5-5-5-5-5-5-5-5-7-7-7-7-2-2-2-2-| x3
E|-----------------5-5-5-5-0-0-0-0-|

e|---------------------------------|
B|---------------------------------|
G|-7-7-7-7-7-7-7-7-6-6-6-6-6-6-6-6-|
D|-x-x-x-x-x-x-x-x-x-x-x-x-x-x-x-x-|
A|-5-5-5-5-5-5-5-5-4-4-4-4-4-4-4-4-| x1
E|---------------------------------|

Outro: Gradually get slower....and leads into next song
e|-----------------------------------------|
B|-----------------------------------------|
G|-----------------------------------------|
D|-4/(6)-6/(9)-7--7/(9)--9/11--11/(12)-\9--|
A|-x/(x)-x/(x)-x--x/(x)--x/x---x-/(xx)-\x--| x10...more into next song
E|-2/(4)-4/(7)-5--5/(7)--7/9---9-/(10)-\7--|
            
Submit corrections

comments powered by Disqus
↑ Back to top | Blink Tabs for Easy Target. Lyrics for acoustic guitar and electric guitar. 1 Tablatures and chords are parodies/interpretations of the original songs. You may use it for private study, scholarship, research or language learning purposes only