» » »

Blink, Easy Target Tabs (ver.1)

Artists:  A B C D E F G H I J K L M N O P Q R S T U V W X Y Z # 

Easy Target Tabs (ver.1)

Blink Tabs
 Rating:
4/5 (4 votes)
Easy Target lessons Tabs too difficult? Try these video lessons and learn fast
1
                /=slide up
\=slide down
*=DO NOT PICK!!!
Intro (after drums) 
   Tom plays it this way 
e|---------------------------------|
B|---------------------------------|
G|-----------------2-2-2-2---------|
D|-4-4-4-4-4-4-4-4-2-2-2-2-2-2-2-2-|
A|-4-4-4-4-4-4-4-4-0-0-0-0-2-2-2-2-| x4
E|-2-2-2-2-2-2-2-2---------0-0-0-0-|


  But I like playing the chorus this way
e|---------------------------------|
B|---------------------------------|
G|---------------------------------|
D|-4-4-4-4-4-4-4-4-7-7-7-7-2-2-2-2-|
A|-4-4-4-4-4-4-4-4-7-7-7-7-2-2-2-2-| x4
E|-2-2-2-2-2-2-2-2-5-5-5-5-0-0-0-0-|

Verse 1:
e|-------------------------------------------------|
B|-------------------------------------------------|
G|-6-6-6-6-6-6-6-6-6-6-6-6--4-4-4-4/6-6-6-6--2-----|
D|-x-x-x-x-x-x-x-x-x-x-x-x--x-x-x-x/x-x-x-x--x-----| x4
A|-4-4-4-4-4-4-4-4-4-4-4-4--2-2-2-2/4-4-4-4--0-----|
E|-------------------------------------------------|

Chorus:
e|---------------------------------|
B|---------------------------------|
G|-----------------2-2-2-2---------|
D|-4-4-4-4-4-4-4-4-2-2-2-2-2-2-2-2-|
A|-4-4-4-4-4-4-4-4-0-0-0-0-2-2-2-2-| x4
E|-2-2-2-2-2-2-2-2---------0-0-0-0-|

Verse 2: first 2 repeats are bass and drums
e|-------------------------------------|
B|-------------------------------------|
G|-6-----------------------4/6--2------|
D|-x---let ring------------x/x--x------|
A|-4-----------------------2/4--0------| x2
E|-------------------------------------|

Chorus:  
e|---------------------------------|
B|---------------------------------|
G|-----------------2-2-2-2---------|
D|-4-4-4-4-4-4-4-4-2-2-2-2-2-2-2-2-|
A|-4-4-4-4-4-4-4-4-0-0-0-0-2-2-2-2-| x4
E|-2-2-2-2-2-2-2-2---------0-0-0-0-|

Bridge:
e|--------------------------------|
B|--------------------------------|
G|-7-7-7-7-7-7-7-7----------------|
D|-7-7-7-7-7-7-7-7-7-7-7-7-2-2-2--|
A|-5-5-5-5-5-5-5-5-7-7-7-7-2-2-2--| x3
E|-----------------5-5-5-5-0-0-0--|


e|----------------------------------------R-|
B|----------------------------------------E-|
G|-------*-*---*-*------*---*-(QUICKslide)P-|   Play as many times as necessary
D|-4-4-6/8\7-7-9-11-11/-12\-9-9\^-4-------E-|   since there is no real ending to
A|-x-x-x/X\X-X-X-X--X-/-X-\-X-X\^-X-------A-|   THIS AWSOME SONG "EASY TARGET"
E|-2-2-4/6\5-5-7-9--9-/-10\-7-7\^-2-------T-|
            
Submit corrections

comments powered by Disqus
↑ Back to top | Blink Tabs for Easy Target. Lyrics for acoustic guitar and electric guitar. 1 Tablatures and chords are parodies/interpretations of the original songs. You may use it for private study, scholarship, research or language learning purposes only