» » »

Dumpweed Tabs (ver.3)

Artists:  A B C D E F G H I J K L M N O P Q R S T U V W X Y Z # 

Dumpweed Tabs (ver.3)

Blink
Rating:
0/5 (0 votes)

Hard to play? Try these video lessons and learn fast.
                Intro:
e|---------------------------------------------------------------------------|
B|---------------------------------------------------------------------------|
G|-----1h2p1--------------1h2p1---------2-2-1h2p1----------2-2-1h2p1--4------|
D|-2-2-----------4-2--2-2-----------4---2-2-----------4-2--2-2----------4-2--|
A|-2-2-------2-0------2-2-------2-0-----0-0-------2-0------0-0---------------|
E|-0-0----------------0-0----------------------------------------------------|

e|-4-----4------2-----2------4-----4------5------5-----|
B|---5-0---5-0----5-0---5-0----5-0---5-0----5-0----5-0-|
G|-----------------------------------------------------|(2x)
D|-----------------------------------------------------|
A|-----------------------------------------------------|
E|-----------------------------------------------------|

Verse: Palm-Muted
e|---------------------------------------------------------------------------------|
B|---------------------------------------------------------------------------------|
G|-----------4-4-4-4-4-----------4-4-4-4-4-2-2-2-2-2-4-4-4-4-4-2-2-2-2-2-4-4-4-4-4-|
D|-2-2-2-2-2-4-4-4-4-4-2-2-2-2-2-4-4-4-4-4-2-2-2-2-2-4-4-4-4-4-2-2-2-2-2-4-4-4-4-4-|
A|-2-2-2-2-2-2-2-2-2-2-2-2-2-2-2-2-2-2-2-2-0-0-0-0-0-2-2-2-2-2-0-0-0-0-0-2-2-2-2-2-|
E|-0-0-0-0-0-----------0-0-0-0-0---------------------------------------------------|

Chorus:
e|-------------------------------------------------| 
B|-------------------------------------------------|
G|-----------4-4-4-4-4-2-2-2-2-2-4-4-4-4-4---------|(2x)
D|-2-2-2-2-2-4-4-4-4-4-2-2-2-2-2-4-4-4-4-4---------|
A|-2-2-2-2-2-2-2-2-2-2-0-0-0-0-0-2-2-2-2-2---------|
E|-0-0-0-0-0---------------------------------------|

Solo:
e|-4-----4------2-----2------4-----4------2--------2--|
B|---5-0---5-0----5-0---5-0----5-0---5-0----5-0--5----|
G|----------------------------------------------------|(2x)
D|----------------------------------------------------|
A|----------------------------------------------------|
E|----------------------------------------------------|
            
Hard to play? Try these video lessons and learn fast. | Correct




comments powered by Disqus
↑ Back to top | Tablatures and chords are parodies/interpretations of the original songs. You may use it for private study, scholarship, research or language learning purposes only