» » »

Blink, Dumpweed Tabs (ver.2)

Artists:  A B C D E F G H I J K L M N O P Q R S T U V W X Y Z # 

Dumpweed Tabs (ver.2)

Blink Tabs
Rating:
0/5 (0 votes)
Dumpweed lessons Tabs too difficult? Try these video lessons and learn fast
                dumpweed

Intro
e------------|---------|------------|---------|
b------------|---------|------------|---------|
g------------|---------|------------|---------|
d-2--6-6/7\6-|---------|-2--6-6/7\6-|---------|
a-2----------|---0-9-0-|-2----------|---0-9---|
E-0----------|-7-------|-0----------|-7-------|

e------------|---------|------------|---------|
b------------|---------|------------|---------|
g-2----------|---------|-2----------|---------|
d-2--6-6/7\6-|---------|-2--6-6/7\6-|-9-------|
a-0----------|---0-9-0-|-0----------|-----9---|
E------------|-7-------|------------|---7-----|

Intro 2 
  E5                A5                B5                        A5   
  / / / / / / / /   / / / / / / / /   / / / / / / / /   / / / / / / /  
e-4p0---0-4p0---0-|-2p0---0-2p0---0-|-4p0---0-4p0---0-|-5p0---0-5p0---0-|
b-----0-------0---|-----0-------0---|-----0-------0---|-----0-------0---|
d-----------------|-----------------|-----------------|-----------------|
g-----------------|-----------------|-----------------|-----------------|
d-----------------|-----------------|-----------------|-----------------|
E-----------------|-----------------|-----------------|-----------------|

  E5                A5                B5                        A5   
  / / / / / / / /   / / / / / / / /   / / / / / / / /   / / / / / / /  
e-4p0---0-4p0---0-|-2p0---0-2p0---0-|-4p0---0-4p0---0-|-5p0---0-5p0-----|
b-----0-------0---|-----0-------0---|-----0-------0---|-----0-------0---|
d-----------------|-----------------|-----------------|-----------------|
g-----------------|-----------------|-----------------|-----------------|
d-----------------|-----------------|-----------------|-----------------|
E-----------------|-----------------|-----------------|-----------------|

Verse
e----------|----------|----------|---------|
b----------|----------|----------|---------|
g----------|----------|----------|---------|
d----------|-44444----|----------|-4444----|
a-2-222222-|-22222----|-22222222-|-2222----|
E-0-000000-|----------|-00000000-|---------|
Pm  ......   .....      ........   ....        

e----------|---------|----------|---------|
b----------|---------|----------|---------|
g----------|---------|----------|---------|
d-2-222222-|-4444----|-22222222-|-4444----|
a-0-000000-|-2222----|-00000000-|-2222----|
E----------|---------|----------|---------|
Pm  ......   ....      ........   ....


Repeat Intro

Chorus
e----------|----------|----------|----------|
b----------|----------|----------|----------|
g----------|-4-444444-|-2-222222-|-4-444444-|
d-2-222222-|-4-444444-|-2-222222-|-4-444444-|
a-2-222222-|-2-222222-|-0-000000-|-2-222222-|
E-0-000000-|----------|----------|----------|

e----------|----------|----------|-------|
b----------|----------|----------|-------|
g-2-222222-|-4-444444-|-2-222222-|-4--4--|
d-2-222222-|-4-444444-|-2-222222-|-4--4--|
a-2-222222-|-2-222222-|-0-000000-|-2--2--|
E-0-000000-|----------|----------|-------|

Repeat Intro 2

Repeat Verse

Repeat Intro 

Repeat Chorus

Outro
Guitar One
e----------|----------|----------|-------|
b----------|----------|----------|-------|
g----------|----------|----------|-------|
d----------|-44444----|----------|-44444-|
a-22222222-|-22222----|-22222222-|-22222-|
E-00000000-|----------|-00000000-|-------|
Pm........   .....      ........   .....   

e----------|----------|----------|----------|
b----------|----------|----------|----------|
g----------|----------|----------|----------|
d-22222222-|-44444----|-22222222-|-44444----|
a-00000000-|-22222----|-00000000-|-22222----|
E----------|----------|----------|----------|
Pm........   .....      ........   .....

Guitar Two                           1st/3rd end. 2nd end.... 4th end 
e-4-0---0---|-2-0---0---|-4-0---0---|-5-0---0---|-5-0---0-2-|-2-0---0---|
b-----0---0-|-----0---0-|-----0---0-|-----0---0-|-----0-----|-----0-----|
g-----------|-----------|-----------|-----------|-----------|-----------|
d-----------|-----------|-----------|-----------|-----------|-----------|
a-----------|-----------|-----------|-----------|-----------|-----------|
E-----------|-----------|-----------|-----------|-----------|-----------|
            
Submit corrections

comments powered by Disqus
↑ Back to top | Blink Tabs for Dumpweed. Lyrics for acoustic guitar and electric guitar. Tablatures and chords are parodies/interpretations of the original songs. You may use it for private study, scholarship, research or language learning purposes only