>
 >
Dumpweed

Dumpweed Guitar Tabs

Blink - Dumpweed chords, tabs, tablatures, lyrics

Guitar lessons | Add/correct | Request | Top 50 tabs Artists:  A B C D E F G H I J K L M N O P Q R S T U V W X Y Z 0-9

Dumpweed Guitar Tabs – Blink

CD, Sheet music, Poster

Do you like Dumpweed? Share with your friends now
TabsTabs v2Tabs v3
intro (please rate this tab)

e]------------------------------------------------------------------------------
B]------------------------------------------------------------------------------
G]---1-1h2p1---------------1-1h2p1---------2---1-1h2p1-----------2-1-1h2p1-4----
D]-2-------------4-----2---------------4---2---------------4-----2-----------4--
A]-2--------2 0----0---2----------2-0------0-----------2-0---0---0----------2---
E]-0-------------------0--------------------------------------------------------

intro 2   do this 2 times (fast)
e]--4p0-0-4p0-0-2p0-0-2p0-0-4p0-0-4p0-0-5p0-0-5p0-0-----------------------------
B]-----0-----0-----0-----0-----0-----0-----0-----0------------------------------
G]------------------------------------------------------------------------------
D]------------------------------------------------------------------------------
A]------------------------------------------------------------------------------
E]------------------------------------------------------------------------------

verse do 2 times
e]-----------------------------------------------------------------------------
B]-----------------------------------------------------------------------------
G]-----------------------------------------------------------------------------
D]---------44444----------44444-22222222-44444-22222222-44444------------------
A]22222222-22222-22222222-22222-00000000-22222-00000000-22222------------------
E]00000000-------00000000------------------------------------------------------
pm ----------------------------- ----------------------------------------------

INTRO AGAIN
e]------------------------------------------------------------------------------
B]------------------------------------------------------------------------------
G]---1-1h2p1---------------1-1h2p1---------2---1-1h2p1-----------2-1-1h2p1-4----
D]-2-------------4-----2---------------4---2---------------4-----2-----------4--
A]-2--------2 0----0---2----------2-0------0-----------2-0---0---0----------2---
E]-0-------------------0--------------------------------------------------------

chorus fast
e]-----------------------------------------------------------------------------
B]-----------------------------------------------------------------------------
G]---------44444444-22222222-44444444-----------44444444-22222222--4----4------
D]22222222-44444444-22222222-44444444--22222222-44444444-22222222--4----4------
A]22222222-22222222-00000000-22222222--22222222-22222222-00000000--2----2-----
E]00000000-----------------------------00000000--------------------------------

do this 2 times (fast)
e]--4p0-0-4p0-0-2p0-0-2p0-0-4p0-0-4p0-0-5p0-0-5p0-0-----------------------------
B]-----0-----0-----0-----0-----0-----0-----0-----0------------------------------
G]------------------------------------------------------------------------------
D]------------------------------------------------------------------------------
A]------------------------------------------------------------------------------
E]------------------------------------------------------------------------------

verse do 1 time
e]-----------------------------------------------------------------------------
B]-----------------------------------------------------------------------------
G]-----------------------------------------------------------------------------
D]---------44444----------44444-22222222-44444-22222222-44444------------------
A]22222222-22222-22222222-22222-00000000-22222-00000000-22222------------------
E]00000000-------00000000------------------------------------------------------
pm ----------------------------- ----------------------------------------------

INTRO AGAIN
e]------------------------------------------------------------------------------
B]------------------------------------------------------------------------------
G]---1-1h2p1---------------1-1h2p1---------2---1-1h2p1-----------2-1-1h2p1-4----
D]-2-------------4-----2---------------4---2---------------4-----2-----------4--
A]-2--------2 0----0---2----------2-0------0-----------2-0---0---0----------2---
E]-0-------------------0--------------------------------------------------------

chorus 2 times fast
e]-----------------------------------------------------------------------------
B]-----------------------------------------------------------------------------
G]---------44444444-22222222-44444444-----------44444444-22222222--4----4------
D]22222222-44444444-22222222-44444444--22222222-44444444-22222222--4----4------
A]22222222-22222222-00000000-22222222--22222222-22222222-00000000--2----2-----
E]00000000-----------------------------00000000--------------------------------

   then do this 2 times
e]-----------------------------------------------------------------------------
B]-----------------------------------------------------------------------------
G]-----------------------------------------------------------------------------
D]---------44444----------44444-22222222-44444-22222222-44444------------------
A]22222222-22222-22222222-22222-00000000-22222-00000000-22222------------------
E]00000000-------00000000------------------------------------------------------
pm--------------------------------------------------------------------------------

outro
e]--4p0-0--2p0-0-4p0-0-5p0-0----------------------------------------------------
B]-----0-0----0-0---0-0---0-0---------------------------------------------------
G]------------------------------------------------------------------------------
D]------------------------------------------------------------------------------
A]------------------------------------------------------------------------------
E]------------------------------------------------------------------------------

e]--4p0-0--2p0-0-4p0-0-5p0-0-2--------------------------------------------------
B]-----0-0----0-0---0-0---0-----------------------------------------------------
G]------------------------------------------------------------------------------
D]------------------------------------------------------------------------------
A]------------------------------------------------------------------------------
E]------------------------------------------------------------------------------

e]--4p0-0--2p0-0-4p0-0-5p0-0----------------------------------------------------
B]-----0-0----0-0---0-0---0-0---------------------------------------------------
G]------------------------------------------------------------------------------
D]------------------------------------------------------------------------------
A]------------------------------------------------------------------------------
E]------------------------------------------------------------------------------

e]--4p0-0--2p0-0-4p0-0-5p0-0----------------------------------------------------
B]-----0-0----0-0---0-0---0-0---------------------------------------------------
G]------------------------------------------------------------------------------
D]------------------------------------------------------------------------------
A]------------------------------------------------------------------------------
E]------------------------------------------------------------------------------

THE END!! bLINK RULE!!!!!!!!!!!!!!!!!!!!!!!!!!!!!!!!!!!!





Comments


Popular Blink tabs & chords
Adams Song 1 Tabs
All The Small Things Tabs
Damnit Tabs
Easy Target 2 Tabs
Enthused Tabs
Everytime I Look For You 1 Tabs
Feeling This 100% Tabs
Obvious 2 Tabs
Please Take Me Home 1 Tabs
Shut Up Tabs


Song lyrics



↑ Back to top | Tablatures and chords are parodies/interpretations of the original songs. You may use it for private study, scholarship, research or language learning purposes only
© 2014 AZChords.com Contact us | Privacy policy | DMCA | Add/correct tabs | Request tabs | Top 50 tabs