» » »

Blink, Asthenia Tabs (ver.3)

Artists:  A B C D E F G H I J K L M N O P Q R S T U V W X Y Z # 

Asthenia Tabs (ver.3)

Blink Tabs
 Rating:
4/5 (4 votes)
Asthenia lessons Tabs too difficult? Try these video lessons and learn fast
1
                INTRO:  
  
B|--------7---------------------------7----------------------|  
G|-----7-----------------7-----7------------------7----------|  
D|--------------------------7-------------------------7------|  
A|-5------------------5----------------------5-------------5-|  
  
VERSE:  
  
   D    F#   G    E  
G|-7----7----7----7-----|  
D|-7----4----5----x-----|  
A|-5--------------7-----|  
  
BRIDGE:  
  
 /--------X5-------\  
G|-7---7---7---9---|-7---7-----------|  
D|-7---7---7---9---|-7---7---7-7-7-7-|  
A|-5---4---5---7---|-5---4---5-5-5-5-|  
                             PM......  
  
CHORUS:  
  
D F# G E  
  
I'm about to figure the riff out, but it's harder then the other stuff  
(Not hard to tab! Just hard to hear it right!) So it'll take a while.  
Here is what I got so fare: (But it's surely wrong!)  
  
 /------X2-----\                                \  
G|------7-7----| Then it's getting               |  
D|-------------| a bit complicated               X2  
A|-5-5---------| (But I'll get it fixed!)        |  
 PM...                                          /  
                                                  
  
INTERLUDE:  
  
Don't worry! I'm trying to get a structure in here! (Soon? Yeah next week or  
something! At Christmas? Yeah at Christmas!)  
  
Bend some of these:  
A|-5-5-5-5-5-5-5-|  
       
Play this ^ a few times (I really don't know, I'm tied!, I wanna go home now!)  
  
Then hit this power chord a few times!  
  
     D  
G|---7----| Sometimes with  
D|---7----| palm mute,            (I don't care, when, how offen, how fast, how  
loud, just figure it out on yourself and send me your's!)  
A|---5----| sometimes with out!  
  
Then play this beneath and go back to the power chord hitting!  
(Repeat the power chord hitting and this thing beneath a few times! And then if  
you're lame enough, you can call it a solo!)  
  
D|------------4-4-4-4-/-5--5-5--5-\-2-2-2-2-2-2-|  
A|-5-5-5-5-5------------------------------------|  
  PM... .  .  
        
  
  
I'm pretty sure there is at least a tiny bit of correctness in this tab  
(I hope so). And to all who think the guys of Blink were much better with   
Scott (Nothing against Travis, he is awesome!) have fun. And to all others  
have a tiny bit less fun, but have fun.   
  
  
  
P.S. I don't think this tab is correct! So don't rate too good!
            
Submit corrections

comments powered by Disqus
↑ Back to top | Blink Tabs for Asthenia. Lyrics for acoustic guitar and electric guitar. 1 Tablatures and chords are parodies/interpretations of the original songs. You may use it for private study, scholarship, research or language learning purposes only