» » »

Blink, Asthenia Tabs (ver.2)

Artists:  A B C D E F G H I J K L M N O P Q R S T U V W X Y Z # 

Asthenia Tabs (ver.2)

Blink Tabs
 Rating:
4/5 (4 votes)
Asthenia lessons Tabs too difficult? Try these video lessons and learn fast
1
                Blink-182
Asthenia

Intro
e|------------------------------|
B|-------7-----------7----------|
G|---7-----7---6-7-----7---6-7--|
D|-----0-----0-----0-----0------|
A|------------------------------|
E|------------------------------|

Verse?????????????????

Interlude guitar 1
e|---------------|  |-------------| }
B|---------------|  |-------------| }
G|-77-66-77-99---|  |-77-77-xxxx--| }
D|-xx-xx-xx-xx---|x5|-xx-xx-xxxx--| }x2
A|-55-44-55-77---|  |-55-44-xxxx--| }
E|---------------|  |-------------| }
Guitar 2
e|-------------------------|
B|-------------------------|
G|-7-----------------------|
D|-7-x16-4-----5-----xxxx--|
A|-5-----4-x16-5-x16-xxxx--|
E|-------2-----3-----xxxx--|

Chorus
e|--------------------|
B|--------------------|
G|--------------------|
D|-4----5----7--------|
A|-4-x6-5-x8-7-x16----|
E|-2----3----5--------|

Bridge

e|------------------|------------------|------------------|------------------|
B|------------------|------------------|------------------|------------------|
G|-777-7-7-7/66-66--|-777-7-7-7/66-66--|-111111111/99-99--|-777-7-7-7/66-66--|
D|-xxx-x-x-x/xx-xx--|-xxx-x-x-x/xx-xx--|-xxx-x-x-x/xx-xx--|-xxx-x-x-x/xx-xx--|
A|-555-5-5-5/44-44--|-555-5-5-5/44-44--|-999-9-9-9/77-77--|-555-5-5-5/44-44--|
E|------------------|------------------|------------------|------------------|

e|----------------------------|
B|-------77777888555555-------|
G|-77777----------------77-77-|
D|-77777----------------77-77-|x4
A|-55555----------------55-55-|
E|----------------------------|
   xxxxx                xx xx
            
Submit corrections

comments powered by Disqus
↑ Back to top | Blink Tabs for Asthenia. Lyrics for acoustic guitar and electric guitar. 1 Tablatures and chords are parodies/interpretations of the original songs. You may use it for private study, scholarship, research or language learning purposes only