>
 >
Asthenia

Asthenia Guitar Tabs

Blink - Asthenia chords, tabs, tablatures, lyrics

Guitar lessons | Add/correct | Request | Top 50 tabs Artists:  A B C D E F G H I J K L M N O P Q R S T U V W X Y Z 0-9

Asthenia Guitar Tabs – Blink

CD, Sheet music, Poster

Do you like Asthenia? Share with your friends now
TabsTabs v2Tabs v3

Tuning: Standard

Guitar 1: Slightly Distorted w/flanger effect
Guitar 2: Distorted
Guitar 3: Distorted
Guitar 4: Slightly Distorted
Guitar 5: Clean



Intro: (Guitar 1)
e|-------------------------------------------------------------|
B|-----------7~~~~~~~~~~--------------7~~~~~~~~~~--------------|
G|-----7~~--------------7~~---6~7~~--------------7~----6~7~~~~~|
D|--------0~~--------------0~------0~---------------0~---------|
A|-------------------------------------------------------------|
E|-------------------------------------------------------------|


Verse: (Guitar 1)
e|-------------------------------------------------------------------|
B|-------------------------------------------------------------------|
G|-7-7-7-7-7-7-7-7-6-6-6-6-6-6-6-6-4-4-4-4-4-4-4-4-6-6-6-6-6-6-6-6---|
D|-x-x-x-x-x-x-x-x-x-x-x-x-x-x-x-x-x-x-x-x-x-x-x-x-x-x-x-x-x-x-x-x---|x4
A|-5-5-5-5-5-5-5-5-4-4-4-4-4-4-4-4-2-2-2-2-2-2-2-2-4-4-4-4-4-4-4-4---|
E|-------------------------------------------------------------------|


Pre-Chorus: (Guitar 2)
e|------------------------------------------------------------|
B|------------------------------------------------------------|
G|--77667799-77667799-77667799-77667799-77667799-7766---------|
D|--xxxxxxxx-xxxxxxxx-xxxxxxxx-xxxxxxxx-xxxxxxxx-xxxx-0000----|x2
A|--55445577-55445577-55445577-55445577-55445577-5544-0000----|
E|------------------------------------------------------------|
                                                      pm..
Pre-Chorus: (Guitar 3)
e|------------------------------------------------------------|
B|------------------------------------------------------------|
G|--77777777777777777-----------------------------------------|
D|--77777777777777777-44444444444444444-5555555555555-0000----|x2
A|--55555555555555555-44444444444444444-5555555555555-0000----|
E|--------------------22222222222222222-3333333333333---------|
                                                      pm..

Chorus: (Guitar 4)
e|---------------------------------------------------------|
B|---------------------------------------------------------|
G|------7--7-----7--7-----7--------7--7-----777-----7------|
D|--4-4-x--x-5-5-x--x-5-5-x-5--7-7-x--x-7-7-xxx-7-7-x-7----|
A|--x-x-5--5-x-x-5--5-x-x-5-x--x-x-5--5-x-x-444-x-x-4-x----|
E|--2-2------3-3------3-3---3--5-5------5-5-----5-5---5----|

Chorus: (Guitar 5)
e|---------------------------------------------------------|
B|---------------------------------------------------------|
G|---------------------------------------------------------|
D|---------------------------------------------------------|
A|------5--5-----5--5-----5--------5--5-----444-----4------|
E|--2-2------3-3------3-3---3--5-5------5-5-----5-5---5----|

Chorus: (Guitar 4)
e|---------------------------------------------------------|
B|---------------------------------------------------------|
G|------7--7-----7--7-----7--------7--7-----7~~~~~~~~~~----|
D|--4-4-x--x-5-5-x--x-5-5-x-5--7-7-x--x-7-7-x--------------|
A|--x-x-5--5-x-x-5--5-x-x-5-x--x-x-5--5-x-x-4~~~~~~~~~~----|
E|--2-2------3-3------3-3---3--5-5------5-5----------------|

Chorus: (Guitar 5)
e|---------------------------------------------------------|
B|---------------------------------------------------------|
G|---------------------------------------------------------|
D|---------------------------------------------------------|
A|------5--5-----5--5-----5--------5--5-----4~~~~~~~~~~----|
E|--2-2------3-3------3-3---3--5-5------5-5----------------|


Intro: (Guitar 1)
e|-------------------------------------------------------------|
B|-----------7~~~~~~~~~~--------------7~~~~~~~~~~--------------|
G|-----7~~--------------7~~---6~7~~--------------7~----6~7~~~~~|
D|--------0~~--------------0~------0~---------------0~---------|
A|-------------------------------------------------------------|
E|-------------------------------------------------------------|


Verse: (Guitar 1)
e|-------------------------------------------------------------------|
B|-------------------------------------------------------------------|
G|-7-7-7-7-7-7-7-7-6-6-6-6-6-6-6-6-4-4-4-4-4-4-4-4-6-6-6-6-6-6-6-6---|
D|-x-x-x-x-x-x-x-x-x-x-x-x-x-x-x-x-x-x-x-x-x-x-x-x-x-x-x-x-x-x-x-x---|x2
A|-5-5-5-5-5-5-5-5-4-4-4-4-4-4-4-4-2-2-2-2-2-2-2-2-4-4-4-4-4-4-4-4---|
E|-------------------------------------------------------------------|


Pre-Chorus: (Guitar 2)
e|------------------------------------------------------------|
B|------------------------------------------------------------|
G|--77667799-77667799-77667799-77667799-77667799-7766---------|
D|--xxxxxxxx-xxxxxxxx-xxxxxxxx-xxxxxxxx-xxxxxxxx-xxxx-0000----|x2
A|--55445577-55445577-55445577-55445577-55445577-5544-0000----|
E|------------------------------------------------------------|
                                                      pm..
Pre-Chorus: (Guitar 3)
e|------------------------------------------------------------|
B|------------------------------------------------------------|
G|--77777777777777777-----------------------------------------|
D|--77777777777777777-44444444444444444-5555555555555-0000----|x2
A|--55555555555555555-44444444444444444-5555555555555-0000----|
E|--------------------22222222222222222-3333333333333---------|
                                                      pm..

Chorus: (Guitar 4)
e|---------------------------------------------------------|
B|---------------------------------------------------------|
G|------7--7-----7--7-----7--------7--7-----777-----7------|
D|--4-4-x--x-5-5-x--x-5-5-x-5--7-7-x--x-7-7-xxx-7-7-x-7----|x3
A|--x-x-5--5-x-x-5--5-x-x-5-x--x-x-5--5-x-x-444-x-x-4-x----|
E|--2-2------3-3------3-3---3--5-5------5-5-----5-5---5----|

Chorus: (Guitar 5)
e|---------------------------------------------------------|
B|---------------------------------------------------------|
G|---------------------------------------------------------|
D|---------------------------------------------------------|x3
A|------5--5-----5--5-----5--------5--5-----444-----4------|
E|--2-2------3-3------3-3---3--5-5------5-5-----5-5---5----|

Chorus: (Guitar 4)
e|---------------------------------------------------------|
B|---------------------------------------------------------|
G|------7--7-----7--7-----7--------7--7-----7~~~~~~~~~~----|
D|--4-4-x--x-5-5-x--x-5-5-x-5--7-7-x--x-7-7-x--------------|
A|--x-x-5--5-x-x-5--5-x-x-5-x--x-x-5--5-x-x-4~~~~~~~~~~----|
E|--2-2------3-3------3-3---3--5-5------5-5----------------|

Chorus: (Guitar 5)
e|---------------------------------------------------------|
B|---------------------------------------------------------|
G|---------------------------------------------------------|
D|---------------------------------------------------------|
A|------5--5-----5--5-----5--------5--5-----4~~~~~~~~~~----|
E|--2-2------3-3------3-3---3--5-5------5-5----------------|


Interlude: (Guitar 2)  
e|---------------------|   |------------------------------------------|
B|---------------------|   |------------------------------------------|
G|--77777-777-7-77777--|   |-111111111111119999----77777-777-7-77777--|
D|--xxxxx-xxx-x-xxxxx--|x2 |--xxxxx-xxx-x-xxxxx----xxxxx-xxx-x-xxxxx--|
A|--55555-555-5-55555--|   |--99999-999-9-97777----55555-555-5-55555--|
E|---------------------|   |------------------------------------------|

Interlude: (Guitar 3)  
e|--------------------------------------------------------------------|
B|--------------------------------------------------------------------|
G|----------------------------77777-777-7-77777-----------------------|
D|----------------------------xxxxx-xxx-x-xxxxx-----------------------|
A|----------------------------55555-555-5-55555b~~~~~~~---------------|
E|--------------------------------------------------------------------|


Solo:
e|---------------------------------------------------------------------|
B|---------------------------------------------------------------------|
G|---------------------------------------------------------------------|
D|-------7777-44445555222222222200-00-7777-444455552222222222----------|
A|-------5555-------------------00-00-5555-----------------------------|
E|---------------------------------------------------------------------|
         pm..                   pm .. ....
e|---------------------------------------------------------------------|
B|---------------------------------------------------------------------|
G|---------------------------------------------------------------------|
D|-00-0-07777-44445555222222222200-00-7777-44445555222222222200-0-7~~~~|
A|-00-0-05555-------------------00-00-5555-------------------00-0-5~~~~|
E|---------------------------------------------------------------------|
   pm . .....                   pm .. ....                   pm .
 
Chorus: (Guitar 4)
e|---------------------------------------------------------|
B|---------------------------------------------------------|
G|------7--7-----7--7-----7--------7--7-----777-----7------|
D|--4-4-x--x-5-5-x--x-5-5-x-5--7-7-x--x-7-7-xxx-7-7-x-7----|x3
A|--x-x-5--5-x-x-5--5-x-x-5-x--x-x-5--5-x-x-444-x-x-4-x----|
E|--2-2------3-3------3-3---3--5-5------5-5-----5-5---5----|

Chorus: (Guitar 5)
e|---------------------------------------------------------|
B|---------------------------------------------------------|
G|---------------------------------------------------------|
D|---------------------------------------------------------|x3
A|------5--5-----5--5-----5--------5--5-----444-----4------|
E|--2-2------3-3------3-3---3--5-5------5-5-----5-5---5----|

Chorus: (Guitar 4)
e|---------------------------------------------------------|
B|---------------------------------------------------------|
G|------7--7-----7--7-----7--------7--7-----7~~~~~~~~~~----|
D|--4-4-x--x-5-5-x--x-5-5-x-5--7-7-x--x-7-7-x--------------|
A|--x-x-5--5-x-x-5--5-x-x-5-x--x-x-5--5-x-x-4~~~~~~~~~~----|
E|--2-2------3-3------3-3---3--5-5------5-5----------------|

Chorus: (Guitar 5)
e|---------------------------------------------------------|
B|---------------------------------------------------------|
G|---------------------------------------------------------|
D|---------------------------------------------------------|
A|------5--5-----5--5-----5--------5--5-----4~~~~~~~~~~----|
E|--2-2------3-3------3-3---3--5-5------5-5----------------|



Outro: (Guitar 2)
e|------------------------------------------------------------|
B|------------------------------------------------------------|
G|--77667799-77667799-77667799-77667799-77667799-7766-0000----|
D|--xxxxxxxx-xxxxxxxx-xxxxxxxx-xxxxxxxx-xxxxxxxx-xxxx-0000----|
A|--55445577-55445577-55445577-55445577-55445577-5544-0000----|
E|------------------------------------------------------------|
                                                      pm..
Outro: (Guitar 3)
e|------------------------------------------------------------|
B|------------------------------------------------------------|
G|--77777777777777777---------------------------------0000----|
D|--77777777777777777-44444444444444444-5555555555555-0000----|
A|--55555555555555555-44444444444444444-5555555555555-0000----|
E|--------------------22222222222222222-3333333333333---------|
                                                      pm..
Outro: (Guitar 2)
e|------------------------------------------------------------|
B|------------------------------------------------------------|
G|--77667799-77667799-77667799-77667799-----------------------|
D|--xxxxxxxx-xxxxxxxx-xxxxxxxx-xxxxxxxx-----------------------|
A|--55445577-55445577-55445577-55445577-----------------------|
E|------------------------------------------------------------|

Outro: (Guitar 3)
e|------------------------------------------------------------|
B|------------------------------------------------------------|
G|--77777777777777777-----------------------------------------|
D|--77777777777777777-44444444444444444-----------------------|
A|--55555555555555555-44444444444444444-----------------------|
E|--------------------22222222222222222-----------------------|


End On: (Guitar 2)
e|------------------------------------------------------------|
B|------------------------------------------------------------|
G|------------------------------------------------------------|
D|--5~~~~~~~~~~~~~~~~~~~~-------------------------------------|
A|--5~~~~~~~~~~~~~~~~~~~~-------------------------------------|
E|--3~~~~~~~~~~~~~~~~~~~~-------------------------------------|

End On: (Guitar 3)
e|------------------------------------------------------------|
B|------------------------------------------------------------|
G|--7~~~~~~~~~~~~~~~~~~~~-------------------------------------|
D|--x---------------------------------------------------------|
A|--5~~~~~~~~~~~~~~~~~~~~-------------------------------------|
E|------------------------------------------------------------|





Comments


Popular Blink tabs & chords
Anthem 2 Tabs
Dammit 2 Tabs
Down Tabs
Dumpweed 2 Tabs
Everytime I Look For You 1 Tabs
Please Take Me Home 2 Tabs
Stockholm Syndrome Tabs
The Girl Next Door Tabs
The Party Song Tabs
Whats My Age Again 1 Tabs


Song lyrics



↑ Back to top | Tablatures and chords are parodies/interpretations of the original songs. You may use it for private study, scholarship, research or language learning purposes only
© 2014 AZChords.com Contact us | Privacy policy | DMCA | Add/correct tabs | Request tabs | Top 50 tabs