>
 >
Aliens Exist 2

Aliens Exist 2 Guitar Tabs

Blink - Aliens Exist 2 chords, tabs, tablatures, lyrics

Guitar lessons | Add/correct | Request | Top 50 tabs Artists:  A B C D E F G H I J K L M N O P Q R S T U V W X Y Z 0-9

Aliens Exist 2 Guitar Tabs – Blink

CD, Sheet music, Poster

Do you like Aliens Exist 2? Share with your friends now
TabsTabs v2Tabs v3
Intro:                                       Let Ring
e|------------------------------------------------------------------
B|------------------------------------------------------------------
A|------------------------------------------------------------------
D|-5-5-5-5-5-5-5-5-7-7-7-7-8-8-8-8-11->>>>>>>>>>>>>>>>>>>>>>>>>>>>>>
A|-5-5-5-5-5-5-5-5-7-7-7-7-8-8-8-8-11->>>>>>>>>>>>>>>>>>>>>>>>>>>>>>
E|-3-3-3-3-3-3-3-3-5-5-5-5-6-6-6-6-9-->>>>>>>>>>>>>>>>>>>>>>>>>>>>>>
       (These Chords are muted)         Hey mom......

e|---------
B|---------
A|---------
G|--pick---
D|-slide---
A|-\-\-\---

2x
e|------------------------------------------------------------------
B|------------------------------------------------------------------
G|-4-4-4-4----------------------------------------------------------
D|-4-4-4-4-2-2-2-2-6-6-6-6-2-2-2-2----------------------------------
A|-2-2-2-2-2-2-2-2-6-6-6-6-2-2-2-2----------------------------------
E|---------0-0-0-0-4-4-4-4-0-0-0-0----------------------------------

PM    What if people knew........ 2x
e|------------------------------------------------------------------
B|------------------------------------------------------------------
G|-4-4-4-4----------------------------------------------------------
D|-4-4-4-4-4-4-4-4-6-6-6-6-2-2-2-2----------------------------------
A|-2-2-2-2-4-4-4-4-6-6-6-6-2-2-2-2----------------------------------
E|---------2-2-2-2-4-4-4-4-0-0-0-0----------------------------------

PM   know the CIA would say......... 2x
e|------------------------------------------------------------------
B|------------------------------------------------------------------
G|-4-4-4-4-6-6-6-6--------------------------------------------------
D|-4-4-4-4-6-6-6-6-6-6-6-6-2-2-2-2----------------------------------
A|-2-2-2-2-4-4-4-4-6-6-6-6-2-2-2-2----------------------------------
E|-----------------4-4-4-4-0-0-0-0----------------------------------

Chorus    Up all night long.......
e|------------------------------------------------------------------
B|------------------------------------------------------------------
G|-4---4-4-4-4-------------4---4-4-4-4------------------------------
D|-4---4-4-4-4-4---4-4-4-4-4---4-4-4-4-4---4-4-4-4------------------
A|-2---2-2-2-2-4---4-4-4-4-2---2-2-2-2-4---4-4-4-4------------------
E|-------------2---2-2-2-2-------------2---2-2-2-2------------------

PM    And I know it must be late..... 
e|------------------------------------------------------------------
B|------------------------------------------------------------------
G|-------------99-99-99-99-------------99-99-99-99------------------
D|-66-66-66-66-99-99-99-99-66-66-66-66-99-99-99-99------------------
A|-66-66-66-66-77-77-77-77-66-66-66-66-77-77-77-77------------------
E|-44-44-44-44-------------44-44-44-44------------------------------

I'm not like you guys.......
e|------------------------------------------------------------------
B|------------------------------------------------------------------
G|-----------------4------------------------------------------------
D|-4---4-4-2---2-2-4-------4---4-4-2--------------------------------
A|-4---4-4-2---2-2-2-------4---4-4-2--------------------------------
E|-2---2-2-0---0-0---------2---2-2-0--------------------------------

2x
e|------------------------------------------------------------------
B|------------------------------------------------------------------
G|-4-4-4-4----------------------------------------------------------
D|-4-4-4-4-2-2-2-2-6-6-6-6-2-2-2-2----------------------------------
A|-2-2-2-2-2-2-2-2-6-6-6-6-2-2-2-2----------------------------------
E|---------0-0-0-0-4-4-4-4-0-0-0-0----------------------------------

I'am still a skeptic yes you know me..... 2x
e|------------------------------------------------------------------
B|------------------------------------------------------------------
G|-4-4-4-4----------------------------------------------------------
D|-4-4-4-4-4-4-4-4-6-6-6-6-2-2-2-2----------------------------------
A|-2-2-2-2-4-4-4-4-6-6-6-6-2-2-2-2----------------------------------
E|---------2-2-2-2-4-4-4-4-0-0-0-0----------------------------------

I got an injection.......  2x
e|------------------------------------------------------------------
B|------------------------------------------------------------------
G|-4-4-4-4-6-6-6-6--------------------------------------------------
D|-4-4-4-4-6-6-6-6-6-6-6-6-2-2-2-2----------------------------------
A|-2-2-2-2-4-4-4-4-6-6-6-6-2-2-2-2----------------------------------
E|-----------------4-4-4-4-0-0-0-0----------------------------------

e|------------------------------------------------------------------
B|------------------------------------------------------------------
G|-4-4-4-4-6-6-6-6--------------------------------------------------
D|-4-4-4-4-6-6-6-6-6-6-6-6-2----------------------------------------
A|-2-2-2-2-4-4-4-4-6-6-6-6-2----------------------------------------
E|-----------------4-4-4-4-0----------------------------------------

   Up all night long.......
e|------------------------------------------------------------------
B|------------------------------------------------------------------
G|-4---4-4-4-4-------------4---4-4-4-4------------------------------
D|-4---4-4-4-4-4---4-4-4-4-4---4-4-4-4-4---4-4-4-4------------------
A|-2---2-2-2-2-4---4-4-4-4-2---2-2-2-2-4---4-4-4-4------------------
E|-------------2---2-2-2-2-------------2---2-2-2-2------------------

 And I know it must be late.....
e|------------------------------------------------------------------
B|------------------------------------------------------------------
G|-------------99-99-99-99-------------99-99-99-99------------------
D|-66-66-66-66-99-99-99-99-66-66-66-66-99-99-99-99------------------
A|-66-66-66-66-77-77-77-77-66-66-66-66-77-77-77-77------------------
E|-44-44-44-44-------------44-44-44-44------------------------------

       I'm not like you guys.......
e|------------------------------------------------------------------
B|------------------------------------------------------------------
G|-----------------4------------------------------------------------
D|-4---4-4-2---2-2-4-------4---4-4-2--------------------------------
A|-4---4-4-2---2-2-2-------4---4-4-2--------------------------------
E|-2---2-2-0---0-0---------2---2-2-0--------------------------------

Bridge     Guitar 1
e|------------------------------------------------------------------
B|------------------------------------------------------------------
G|------------------------------------------------------------------
D|------------------------------------------------------------------
A|-2-2-2-2-2-2-2-2-2-2-2-2-2-2-2-2-2-2-2-2-2-2-2-2-2-2--------------
E|------------------------------------------------------------------

         Guitar 2 
e|---------------------------------0-0-0-0-0-0-0-0-0----------------
B|-4-4-4-4-4-4-4-4-4-2-2-2-2-2-2-2------------------4-4-4-4-4-4-4---
G|------------------------------------------------------------------
D|------------------------------------------------------------------
A|------------------------------------------------------------------
E|------------------------------------------------------------------

Dark and scary, ordinary
e|--------------------------------------------------------------------------------
B|--------------------------------------------------------------------------------
G|-------------------------4-4-4-4-6-6-6-6-------------------------4-4-4-4-6-6-6-6
D|-6-6-6-6-4-4-4-4-2-2-2-2-4-4-4-4-6-6-6-6-6-6-6-6-4-4-4-4-2-2-2-2-4-4-4-4-6-6-6-6 
A|-6-6-6-6-4-4-4-4-2-2-2-2-2-2-2-2-4-4-4-4-6-6-6-6-4-4-4-4-2-2-2-2-2-2-2-2-4-4-4-4 
E|-4-4-4-4-2-2-2-2-0-0-0-0-----------------4-4-4-4-2-2-2-2-0-0-0-0----------------

Up all night long.......
e|------------------------------------------------------------------
B|------------------------------------------------------------------
G|-4---4-4-4-4-------------4---4-4-4-4------------------------------
D|-4---4-4-4-4-4---4-4-4-4-4---4-4-4-4-4---4-4-4-4------------------
A|-2---2-2-2-2-4---4-4-4-4-2---2-2-2-2-4---4-4-4-4------------------
E|-------------2---2-2-2-2-------------2---2-2-2-2------------------
  
And I know it must be late.....  pm
e|------------------------------------------------------------------
B|------------------------------------------------------------------
G|-------------99-99-99-99-------------99-99-99-99------------------
D|-66-66-66-66-99-99-99-99-66-66-66-66-99-99-99-99------------------
A|-66-66-66-66-77-77-77-77-66-66-66-66-77-77-77-77------------------
E|-44-44-44-44-------------44-44-44-44------------------------------

I'm not like you guys.......              
e|------------------------------------------------------------------
B|------------------------------------------------------------------
G|-----------------4-----------------------4>>>>>>>>>>>>>>>>>>>>>>>>    
D|-4---4-4-2---2-2-4-------4---4-4-2---2-2-4>>>>>>>>>>>>>>>>>>>>>>>> Ring   
A|-4---4-4-2---2-2-2-------4---4-4-2---2-2-2>>>>>>>>>>>>>>>>>>>>>>>>
E|-2---2-2-0---0-0---------2---2-2-0---0-0--------------------------





Comments


Popular Blink tabs & chords
Aliens Exist 1 Tabs
All The Small Things 2 Tabs
Feeling This 1 Tabs
Feeling This 100% Tabs
Feeling This 2 Tabs
Obvious 100% Tabs
Please Take Me Home Tabs
The Country Song Tabs
The Country Song 1 Tabs
Violence 2 Tabs


Song lyrics



↑ Back to top | Tablatures and chords are parodies/interpretations of the original songs. You may use it for private study, scholarship, research or language learning purposes only
© 2014 AZChords.com Contact us | Privacy policy | DMCA | Add/correct tabs | Request tabs | Top 50 tabs