>
 >
Aliens Exist

Aliens Exist Guitar Tabs

Blink - Aliens Exist chords, tabs, tablatures, lyrics

Guitar lessons | Add/correct | Request | Top 50 tabs Artists:  A B C D E F G H I J K L M N O P Q R S T U V W X Y Z 0-9

Aliens Exist Guitar Tabs – Blink

CD, Sheet music, Poster

Do you like Aliens Exist? Share with your friends now
TabsTabs v2Tabs v3

Intro
e----------|----------|----------|
b----------|----------|----------|
g----------|----------|----------|
d----------|----------|----------|
a-22222222-|-22222111-|-2--------|
E----------|----------|----------|
PM........   ........

Verse (Chors Represent what bass plays)
 B5   F#5  G#5  E5   B5   F#5  G#5  E5
e----|----|----|----|----|----|----|----|
b----|----|----|----|----|----|----|----|
g----|----|----|----|----|----|----|----|
d----|----|----|----|----|----|----|----|
a----|----|----|----|----|----|----|----|
E----|----|----|----|----|----|----|----|
 B5   C#5  G#5  E5   B5   F#5  G#5  E5
e----|----|----|----|----|----|----|--------|
b----|----|----|----|----|----|----|--------|
g----|----|----|----|----|----|----|--------|
d----|----|----|----|----|----|----|--------|
a----|----|----|----|----|----|----|--------|
E----|----|----|----|----|----|----|-x\x\x\-|
                                    PickSlide

Interlude
e----------|----------|----------|----------|
b----------|----------|----------|----------|
g-4-444--4-|-4--------|----------|----------|
d-4-444--4-|-422--2-2-|-26666-66-|-622------|
a-2-222--2-|-222--2-2-|-26666-66-|-622--2-2-|
E----------|--00--0-0-|-04444-44-|-400--0-0-|

e----------|----------|----------|----------|
b----------|----------|----------|----------|
g--44-4-44-|-4--------|----------|----------|
d-244-4-44-|-422--2-2-|-26666-66-|-622--2-2-|
a-222-2-22-|-222--2-2-|-26666-66-|-622--2-2-|
E-0--------|--00--0-0-|-04444-44-|-400--0-0-|

Verse                             Riff A comes in
e----------|----------|----------|----------|
b----------|----------|----------|----------|
g-4--------|----------|----------|----------|
d-4--------|----------|----------|----------|
a-2-222220-|----------|----------|----------|
E----------|-22222222-|-44444444-|-00000000-|
PM .......   ........   ........   ........

e----------|----------|----------|----------|
b----------|----------|----------|----------|
g----------|----------|----------|----------|
d----------|----------|----------|----------|
a-22222220-|----------|----------|----------|
E----------|-22222222-|-44444444-|-00000000-|
PM........   ........   ........   ........

e----------|----------|----------|----------|
b----------|----------|----------|----------|
g----------|----------|----------|----------|
d----------|----------|----------|----------|
a-22222222-|-44444440-|----------|----------|
E----------|----------|-44444444-|-00000000-|
PM........   ........   ........   ........

e----------|----------|----------|----------|
b----------|----------|----------|----------|
g----------|----------|----------|----------|
d----------|----------|----------|----------|
a-22222220-|----------|----------|----------|
E----------|-22222222-|-44444444-|----------|
PM........   ........   ........

Riff A (For verse)         Play 5 times
e----------||-----------|------------||
b----------||o----------|-----------o||
g----------||--88-------|------------||
d-889--889-||----9----9-|-889--889---||
a----------||o----------|-----------o||
E----------||-----------|------------||


Chorus
e----------|----------|----------|----------|
b----------|----------|----------|----------|
g----------|----------|----------|----------|
d-9-999999-|-9-99999\-|-4-444444-|-4-44444/-|
a-x-xxxxxx-|-x-xxxxx--|-4-444444-|-4-44444--|
E-7-777777-|-7-77777\-|-2-222222-|-2-22222/-|

e----------|----------|----------|----------|
b----------|----------|----------|----------|
g----------|----------|----------|----------|
d-9-999999-|-9-99999\-|-4-444444-|-4-4--4-4-|
a-x-xxxxxx-|-x-xxxxx--|-x-xxxxxx-|-x-x--x-x-|
E-7-777777-|-7-77777\-|-2-222222-|-2-2--2-2-|

After Chorus X2
e----------|----------|----------|----------|
b----------|----------|----------|----------|
g----------|----------|----------|----------|
d-11---11--|-11---11--|-22---22--|-22---22--|  
a---2----2-|---2----2-|---2----2-|---2----2-|
E----------|----------|----------|----------|
PM...  ...   ...  ...   ...  ...   ...  ...


After After Chorus
e-----|------|------|------|------|------|
b-----|------|------|------|------|------|
g-----|------|------|------|------|------|
d-----|------|------|------|------|------|
a-----|------|-2----|------|------|------|
E-2---|-0----|------|------|-2----|-0----|


Repeat Interlude

Repeat Verse

Repeat Chorus

Repeat After Chorus

Repeat After After Chorus

Bridge
Guitar 1
e----------|----------|----------|----------|
b----------|----------|----------|----------|
g-44444444-|-44444444-|-44444444-|-44444444-|
d-xxxxxxxx-|-xxxxxxxx-|-xxxxxxxx-|-xxxxxxxx-|
a-22222222-|-22222222-|-22222222-|-22222222-|
E----------|----------|----------|----------|

e----------|----------|----------|----------|
b----------|----------|----------|----------|
g-44444444-|-44444444-|-44444444-|-44444444-|
d-xxxxxxxx-|-xxxxxxxx-|-xxxxxxxx-|-xxxxxxxx-|
a-22222222-|-22222222-|-22222222-|-22222222-|
E----------|----------|----------|----------|

Guitar 1
e----------|----------|----------|----------|
b----------|----------|----------|----------|
g-44444444-|-44444444-|-44444444-|-44444444-|
d-xxxxxxxx-|-xxxxxxxx-|-xxxxxxxx-|-xxxxxxxx-|
a-22222222-|-22222222-|-22222222-|-22222222-|
E----------|----------|----------|----------|
Guitar 2					
e----------|----------|----------|----------|
b----------|----------|----------|----------|
g-8-8-8888-|-8-8-8888-|-8\666-66-|-6-666666-|
d-x-x-xxxx-|-x-x-xxxx-|-x--xx-xx-|-x-xxxxxx-|
a-6-6-6666-|-6-6-6666-|-6\444-44-|-4-444444-|
E----------|----------|----------|----------|

guitar 1
e----------|----------|----------|----------|
b----------|----------|----------|----------|
g-44444444-|-44444444-|-44444444-|-44444444-|
d-xxxxxxxx-|-xxxxxxxx-|-xxxxxxxx-|-xxxxxxxx-|
a-22222222-|-22222222-|-22222222-|-22222222-|
E----------|----------|----------|----------|
Guitar 2
e----------|----------|----------|----------|
b----------|----------|----------|----------|
g-8/9999-99|-9-999999-|-9\8888-88|-8-888-6--|
d-x--xxx-xx|-x-xxxxxx-|-x--xxx-xx|-x-xxx-x--|
a-4/7777-77|-7-777777-|-7\6666-66|-6-666-4--|
E----------|----------|----------|----------|

Outro Verse
e----------|----------|----------|----------|
b----------|----------|----------|----------|
g----------|----------|----------|----------|
d-6-666-6--|-6-666-6--|-4-444-4--|-4-444-4--|
a-6-666-6--|-6-666-6--|-4-444-4--|-4-444-4--|
E-4-444-4--|-4-444-4--|-2-222-2--|-2-222-2--|

e----------|----------|----------|----------|
b----------|----------|----------|----------|
g----------|----------|-4-444-4--|----------|
d-2-222-2--|-2-222-2--|-4-444-4--|-4-444-4--|
a-2-222-2--|-2-222-2--|-2-222-2--|-4-444-4--|
E-0-000-0--|-0-000-0--|----------|-2-222-2--|

Outro Verse Part 2
(with Outro Verse)

e----------|----------|----------|----------|
b----------|----------|----------|----------|
g-8-888-8--|-8-888-8--|-6-666-6--|-6-666-6--|
d-x-xxx-x--|-x-xxx-x--|-x-xxx-x--|-x-xxx-x--|
a-6-666-6--|-6-666-6--|-4-444-4--|-4-444-4--|
E----------|----------|----------|----------|

e----------|----------|----------|----------|
b----------|----------|----------|----------|
g-9-999-9--|-9-999-9--|-8-888-8--|-6-6-6----|
d-x-xxx-x--|-x-xxx-x--|-x-xxx-x--|-x-x-x----|
a-7-777-7--|-7-777-7--|-6-666-6--|-4-4-4----|
E----------|----------|----------|----------|


Repeat Chorus

Repeat After Chorus

Repeat After After Chorus

Outro
e------|------|------|------|------|------|------|
b------|------|------|------|------|------|------|
g------|-9----|-4----|------|------|-9----|-4----|
d-4----|-9----|-4----|------|-4----|-9----|-4----|
a-4----|-7----|-2----|------|-4----|-7----|-2----|
E-2----|-0----|------|------|-2----|-0----|------|


By John Black
Please R8/ comment





Comments


Popular Blink tabs & chords
Anthem 1 Tabs
Boring Tabs
Carousel Tabs
Carousel 1 Tabs
I Miss You 2 Tabs
Im Sorry Tabs
Mutt Tabs
Stockholm Syndrome Tabs
Touchdown Boy Tabs
Wasting Time Tabs


Song lyrics



↑ Back to top | Tablatures and chords are parodies/interpretations of the original songs. You may use it for private study, scholarship, research or language learning purposes only
© 2014 AZChords.com Contact us | Privacy policy | DMCA | Add/correct tabs | Request tabs | Top 50 tabs