» » »

Blink, Aliens Exist Tabs (ver.2)

Artists:  A B C D E F G H I J K L M N O P Q R S T U V W X Y Z # 

Aliens Exist Tabs (ver.2)

Blink Tabs
 Rating:
4/5 (4 votes)
Aliens Exist lessons Tabs too difficult? Try these video lessons and learn fast
                
E|-----------------------------------------------|
B|-----------------------------------------------|
G|---4-4-4-4-4-4-4-4-4-4-4-4-4-4-4-4-4--4~-------|
D|---4-4-4-4-4-4-4-4-4-4-4-4-4-4-4-4-4--4~-------|
A|---2-2-2-2-2-2-2-2-2-2-2-2-2-2-2-2-2--2~-------|
E|-----------------------------------------------|
P.M. _________________________________

E|----------------|
B|----------------|
G|----------------|
D|------Pick------|
A|---///Slide-----|
E|----------------|

E|--------------------------------------------|
B|--------------------------------------------|
G|---4-4-4-4----------------------------------|   2X
D|---4-4-4-4--2-2-2-2--6-6-6-6--2-2-2-2-------|
A|---2-2-2-2--2-2-2-2--6-6-6-6--2-2-2-2-------|
E|------------0-0-0-0--4-4-4-4--0-0-0-0-------|

E|--------------------------------------------|
B|--------------------------------------------|
G|---4-4-4-4----------------------------------|   2X
D|---4-4-4-4--4-4-4-4--6-6-6-6--2-2-2-2-------|
A|---2-2-2-2--4-4-4-4--6-6-6-6--2-2-2-2-------|
E|------------2-2-2-2--4-4-4-4--0-0-0-0-------|
P.M. __________________________________

E|--------------------------------------------|
B|--------------------------------------------|
G|---4-4-4-4--6-6-6-6-------------------------|
D|---4-4-4-4--6-6-6-6--6-6-6-6--2-2-2-2-------|
A|---2-2-2-2--4-4-4-4--6-6-6-6--2-2-2-2-------|
E|---------------------4-4-4-4--0-0-0-0-------|
P.M. __________________________________

E|-----------------------------------|
B|-----------------------------------|
G|---4-4-4-4-------------------------|
D|---4-4-4-4--4-4-4-4--6-6-6-6-------|
A|---2-2-2-2--4-4-4-4--6-6-6-6-------|
E|------------2-2-2-2--4-4-4-4-------|
P.M. _________________________

E|------------------------------------|
B|------------------------------------|
G|---444444444444---------------------|   2X
D|---444444444444--444444444444-------|
A|---222222222222--444444444444-------|
E|-----------------222222222222-------|


E|-----------------------------------------------------------------|
B|-----------------------------------------------------------------|
G|-----------------------------------------------------------------|   2X
D|---1-1----1-1----1-1----1-1-----2-2----2-2----2-2----2-2---------|
A|-------2------2------2------2-------2------2------2------2-------|
E|-----------------------------------------------------------------|
P.M. _______________________________________________________

e|---------------------------------|
B|---------------------------------|
G|-------------4~------------------|
D|---4~---2~---4~-----4~---2-------|
A|---4~---2~---2~-----4~---2-------|
E|---2~---0~----------2~---0-------|

E|--------------------------------------------|
B|--------------------------------------------|
G|---4-4-4-4----------------------------------|   2X
D|---4-4-4-4--2-2-2-2--6-6-6-6--2-2-2-2-------|
A|---2-2-2-2--2-2-2-2--6-6-6-6--2-2-2-2-------|
E|------------0-0-0-0--4-4-4-4--0-0-0-0-------|

E|--------------------------------------------|
B|--------------------------------------------|
G|---4-4-4-4----------------------------------|   2X
D|---4-4-4-4--2-2-2-2--6-6-6-6--2-2-2-2-------|
A|---2-2-2-2--2-2-2-2--6-6-6-6--2-2-2-2-------|
E|------------0-0-0-0--4-4-4-4--0-0-0-0-------|

E|--------------------------------------------|
B|--------------------------------------------|
G|---4-4-4-4----------------------------------|   2X
D|---4-4-4-4--4-4-4-4--6-6-6-6--2-2-2-2-------|
A|---2-2-2-2--4-4-4-4--6-6-6-6--2-2-2-2-------|
E|------------2-2-2-2--4-4-4-4--0-0-0-0-------|
P.M. __________________________________

E|--------------------------------------------|
B|--------------------------------------------|
G|---4-4-4-4--6-6-6-6-------------------------|
D|---4-4-4-4--6-6-6-6--6-6-6-6--2-2-2-2-------|
A|---2-2-2-2--4-4-4-4--6-6-6-6--2-2-2-2-------|
E|---------------------4-4-4-4--0-0-0-0-------|
P.M. __________________________________

E|-----------------------------------|
B|-----------------------------------|
G|---4-4-4-4-------------------------|
D|---4-4-4-4--4-4-4-4--6-6-6-6-------|
A|---2-2-2-2--4-4-4-4--6-6-6-6-------|
E|------------2-2-2-2--4-4-4-4-------|
P.M. _________________________

E|------------------------------------|
B|------------------------------------|
G|---444444444444---------------------|   2X
D|---444444444444--444444444444-------|
A|---222222222222--444444444444-------|
E|-----------------222222222222-------|


E|-----------------------------------------------------------------|
B|-----------------------------------------------------------------|
G|-----------------------------------------------------------------|   2X
D|---1-1----1-1----1-1----1-1-----2-2----2-2----2-2----2-2---------|
A|-------2------2------2------2-------2------2------2------2-------|
E|-----------------------------------------------------------------|
P.M. _______________________________________________________

e|---------------------------------|
B|---------------------------------|
G|-------------4~------------------|
D|---4~---2~---4~-----4~---2-------|
A|---4~---2~---2~-----4~---2-------|
E|---2~---0~----------2~---0-------|

E|---------------------------------------------------------|
B|---------------------------------------------------------|
G|---44444444444444444444444444444444444444444444444-------|
D|---XXXXXXXXXXXXXXXXXXXXXXXXXXXXXXXXXXXXXXXXXXXXXXX-------|
A|---22222222222222222222222222222222222222222222222-------|
E|---------------------------------------------------------|

Guitar 2
E|---------------------------------------------|
B|---------------------------------------------|
G|---88888888/66666666/99999999/88888888-------|
D|---XXXXXXXX/XXXXXXXX/XXXXXXXX/XXXXXXXX-------|
A|---66666666/44444444/77777777/66666666-------|
E|---------------------------------------------|

E|------------------------------------------------------------|
B|------------------------------------------------------------|
G|---------------------------------------444444--666666-------|   2X
D|---6666666666--4444444444--2222222222--444444--666666-------|
A|---6666666666--4444444444--2222222222--222222--444444-------|
E|---4444444444--2222222222--0000000000-----------------------|

E|------------------------------------|
B|------------------------------------|
G|---444444444444---------------------|   2X
D|---444444444444--444444444444-------|
A|---222222222222--444444444444-------|
E|-----------------222222222222-------|


E|-----------------------------------------------------------------|
B|-----------------------------------------------------------------|
G|-----------------------------------------------------------------|   2X
D|---1-1----1-1----1-1----1-1-----2-2----2-2----2-2----2-2---------|
A|-------2------2------2------2-------2------2------2------2-------|
E|-----------------------------------------------------------------|
P.M. _______________________________________________________

e|---------------------------------------|
B|---------------------------------------|
G|-------------4~---------------4~-------|
D|---4~---2~---4~-----4~---2~---4~-------|
A|---4~---2~---2~-----4~---2~---2~-------|
E|---2~---0~----------2~---0~------------|
            
Submit corrections

comments powered by Disqus
↑ Back to top | Blink Tabs for Aliens Exist. Lyrics for acoustic guitar and electric guitar. Tablatures and chords are parodies/interpretations of the original songs. You may use it for private study, scholarship, research or language learning purposes only