>
 >
Love Lost In A Hail Of Gunfire 2

Love Lost In A Hail Of Gunfire 2 Guitar Tabs

Bleeding Through - Love Lost In A Hail Of Gunfire 2 chords, tabs, tablatures, lyrics

Guitar lessons | Add/correct | Request | Top 50 tabs Artists:  A B C D E F G H I J K L M N O P Q R S T U V W X Y Z 0-9

Love Lost In A Hail Of Gunfire 2 Guitar Tabs – Bleeding Through

CD, Sheet music, Poster

Do you like Love Lost In A Hail Of Gunfire 2? Share with your friends now
Bass TabsBass Tabs v2Drum TabsTabsTabs v2Tabs v3
Gtr I (B Gb B E Ab Db)
Gtr II (B Gb B E Ab Db)
Gtr III (B Gb B E Ab Db)
Gtr IV (B Gb B E Ab Db)


 Intro
  Fast Hardcore Q=240
  N.C.
 4/4
  Gtr I                               Gtr II
  PM|   PM  PM  PM    PM  PM  PM  PM  TP TP TP TP   TP TP TP
  E E E E E E E E   E E E E E E E E   Q  Q  Q  Q    Q  Q  Q   Q
|-----------------|-----------------|-------------|---------------|
|-----------------|-----------------|-------------|---------------|
|-----------------|-----------------|-------------|---------------|
|-----------------|-----------------|-3--2-----5--|-3--2--3--[2]--|
|-----5---5---3---|-6---5---3---5---|-------3-----|---------------|
|-0-0---0---0---0-|---0---0---0---0-|-------------|---------------|


    N.C.
    Gtrs I, II
    PM|   PM  PM  PM    PM  PM  PM  PM  TP TP TP TP   TP TP TP
    E E E E E E E E   E E E E E E E E   Q  Q  Q  Q    Q  Q  Q   Q
||------------------|-----------------|-------------|-----------------||
||o-----------------|-----------------|-------------|----------------o||
||------------------|-----------------|-------------|-----------------||
||------------------|-----------------|-3--2-----5--|-3--2--3--[2]----||
||o-----5---5---3---|-6---5---3---5---|-------3-----|----------------o||
||--0-0---0---0---0-|---0---0---0---0-|-------------|-----------------||


   Pre-Verse
    AbD5  F5D5  EbD5  F5D5  EbD5EbD5  AbD5  F5D5  AbD5  G5 Ab5F5 G5
   7/4                               4/4
    E E E E E E E E E E E E S S S S   E E E E E E E E   Q  Q  Q  Q
||----------------------------------|-----------------|---------------||
||o---------------------------------|-----------------|--------------o||
||----------------------------------|-----------------|---------------||
||----------------------------------|-----------------|---------------||
||o-6p0-0-3p0-0-1p0-0-3p0-0-1p0-1p0-|-6p0-0-3p0-0-1p0-|-5--6--3--5---o||
||--6p0-0-3p0-0-1p0-0-3p0-0-1p0-1p0-|-6p0-0-3p0-0-1p0-|-5--6--3--5----||


   Verse
    N.C.
    PM|   PM  PM  PM    PM  PM  PM  PM  TP TP TP TP   TP TP TP
    E E E E E E E E   E E E E E E E E   Q  Q  Q  Q    Q  Q  Q   Q     4x
||------------------|-----------------|-------------|-----------------||
||o-----------------|-----------------|-------------|----------------o||
||------------------|-----------------|-------------|-----------------||
||------------------|-----------------|-3--2-----5--|-3--2--3--[2]----||
||o-----5---5---3---|-6---5---3---5---|-------3-----|----------------o||
||--0-0---0---0---0-|---0---0---0---0-|-------------|-----------------||


 Bridge
  Bb5               N.C.              G5                N.C.
  PM------------|       PM|     PM------------------|       PM|     PM|
  E E E E E E E E   E E E E E E E E   E E E E E E E E   E E E E E E E E
|-----------------|-----------------|-----------------|-----------------|
|-----------------|-----------------|-----------------|-----------------|
|-----------------|-----------------|-----------------|-----------------|
|-----------------|-8p7-----7p5-----|-----------------|-----------------|
|-8-8-8-8-8-8-8-8-|-----------------|-5-5-5-5-5-5-5-5-|-8p7-----7p5-----|
|-8-8-8-8-8-8-8-8-|-----0-0-----0-0-|-5-5-5-5-5-5-5-5-|-----0-0-----0-0-|


  Bb5               N.C.              G5                N.C.
  PM------------|       PM|     PM------------------|       PM|     PM|
  E E E E E E E E   E E E E E E E E   E E E E E E E E   E E E E E E E E
|-----------------|-----------------|-----------------|-----------------|
|-----------------|-----------------|-----------------|-----------------|
|-----------------|-----------------|-----------------|-----------------|
|-----------------|-8p7-----7p5-----|-----------------|-----------------|
|-8-8-8-8-8-8-8-8-|-----------------|-5-5-5-5-5-5-5-5-|-8p7-----7p5-----|
|-8-8-8-8-8-8-8-8-|-----0-0-----0-0-|-5-5-5-5-5-5-5-5-|-----0-0-----0-0-|


  G5                N.C.              F5                N.C.
  PM------------|       PM|     PM------------------|       PM|     PM|
  E E E E E E E E   E E E E E E E E   E E E E E E E E   E E E E E E E E
|-----------------|-----------------|-----------------|-----------------|
|-----------------|-----------------|-----------------|-----------------|
|-----------------|-----------------|-----------------|-----------------|
|-----------------|-----------------|-----------------|-7p5-----5p3-----|
|-5-5-5-5-5-5-5-5-|-8p7-----7p5-----|-3-3-3-3-3-3-3-3-|-----------------|
|-5-5-5-5-5-5-5-5-|-----0-0-----0-0-|-3-3-3-3-3-3-3-3-|-----0-0-----0-0-|


  N.C.
      PM    PM      PM    PM
  E E E E E E E E   E E E E E E  Q
|-----------------|------------------|
|-----------------|------------------|
|-----------------|------------------|
|-8p0---7p0---5p0-|---3p0---2p0------|
|-----------------|-------------[3]--|
|-----0-----0-----|-0-----0----------|


   Interlude
    N.C.
    PM|   PM  PM  PM    PM  PM  PM  PM  TP TP TP TP   TP TP TP
    E E E E E E E E   E E E E E E E E   Q  Q  Q  Q    Q  Q  Q   Q
||------------------|-----------------|-------------|-----------------||
||o-----------------|-----------------|-------------|----------------o||
||------------------|-----------------|-------------|-----------------||
||------------------|-----------------|-3--2-----5--|-3--2--3--[2]----||
||o-----5---5---3---|-6---5---3---5---|-------3-----|----------------o||
||--0-0---0---0---0-|---0---0---0---0-|-------------|-----------------||


    AbD5  F5D5  EbD5  F5D5  EbD5EbD5  AbD5  G5D5  EbD5  G5 Ab5F5 G5
   7/4                               4/4
    E E E E E E E E E E E E S S S S   E E E E E E E E   Q  Q  Q  Q
||----------------------------------|-----------------|---------------||
||o---------------------------------|-----------------|--------------o||
||----------------------------------|-----------------|---------------||
||----------------------------------|-----------------|---------------||
||o-6p0-0-3p0-0-1p0-0-3p0-0-1p0-1p0-|-6p0-0-3p0-0-1p0-|-5--6--3--5---o||
||--6p0-0-3p0-0-1p0-0-3p0-0-1p0-1p0-|-6p0-0-3p0-0-1p0-|-5--6--3--5----||


 Breakdown 1
  G5   Ab5    F5   G5       D5
                           7/4
                            PM---------------------|
  H    H      H    H        q.   q.   q..   E E q  +S
|-----------|-----------||-----------------------------|
|-----------|-----------||o----------------------------|
|-----------|-----------||-----------------------------|
|-----------|-----------||-----------------------------|
|-5----6----|-3----5----||o-0----0----0-----0-0-0--(0)-|
|-5----6----|-3----5----||--0----0----0-----0-0-0--(0)-|


         G5 Ab5F5 G5   D5
 13/8                 16/8
                       PM---------------------|
  H    E Q  Q  Q  Q    q.   q.   q..   E E q  +S  Q
|--------------------|-------------------------------|
|--------------------|-------------------------------|
|--------------------|-------------------------------|
|--------------------|-------------------------------|
|--------5--6--3--5--|-0----0----0-----0-0-0--(0)----|
|--------5--6--3--5--|-0----0----0-----0-0-0--(0)----|


 1.,2.,3.                          4.
    D5                             D5
 15/8                           13/8
    PM---------------------|       PM-----------|
  E E E h    E E E E E E E E  4x E E E h    E E h
|-----------------------------||---------------------|
|----------------------------o||---------------------|
|-----------------------------||---------------------|
|-----------------------------||---------------------|
|---0-0-0----0-0-0-0-0-0-0-0-o||---0-0-0----0-0-0----|
|---0-0-0----0-0-0-0-0-0-0-0--||---0-0-0----0-0-0----|


   Verse 2
    N.C.
   4/4
    PM|   PM  PM  PM    PM  PM  PM  PM
    E E E E E E E E   E E E E E E E E
||------------------|-----------------|
||o-----------------|-----------------|
||------------------|-----------------|
||------------------|-----------------|
||o-----5---5---3---|-6---5---3---5---|
||--0-0---0---0---0-|---0---0---0---0-|


  S S S S S S S S S S S S S S S S   S S S S S S S S S S S S  Q      4x
|---------------------------------|---------------------------------||
|---------------------------------|--------------------------------o||
|---------------------------------|---------------------------------||
|-3-3-3-3-2-2-2-2---------5-5-5-5-|-3-3-3-3-2-2-2-2-3-3-3-3-[2]-----||
|-----------------3-3-3-3---------|--------------------------------o||
|---------------------------------|---------------------------------||


 Bridge 2
  Bb5               N.C.              G5                N.C.
  PM------------|       PM|     PM------------------|       PM|     PM|
  E E E E E E E E   E E E E E E E E   E E E E E E E E   E E E E E E E E
|-----------------|-----------------|-----------------|-----------------|
|-----------------|-----------------|-----------------|-----------------|
|-----------------|-----------------|-----------------|-----------------|
|-----------------|-8p7-----7p5-----|-----------------|-----------------|
|-8-8-8-8-8-8-8-8-|-----------------|-5-5-5-5-5-5-5-5-|-8p7-----7p5-----|
|-8-8-8-8-8-8-8-8-|-----0-0-----0-0-|-5-5-5-5-5-5-5-5-|-----0-0-----0-0-|


  Bb5               N.C.              G5                N.C.
  PM------------|       PM|     PM------------------|       PM|     PM|
  E E E E E E E E   E E E E E E E E   E E E E E E E E   E E E E E E E E
|-----------------|-----------------|-----------------|-----------------|
|-----------------|-----------------|-----------------|-----------------|
|-----------------|-----------------|-----------------|-----------------|
|-----------------|-8p7-----7p5-----|-----------------|-----------------|
|-8-8-8-8-8-8-8-8-|-----------------|-5-5-5-5-5-5-5-5-|-8p7-----7p5-----|
|-8-8-8-8-8-8-8-8-|-----0-0-----0-0-|-5-5-5-5-5-5-5-5-|-----0-0-----0-0-|


  G5                N.C.              F5                N.C.
  PM------------|       PM|     PM------------------|       PM|     PM|
  E E E E E E E E   E E E E E E E E   E E E E E E E E   E E E E E E E E
|-----------------|-----------------|-----------------|-----------------|
|-----------------|-----------------|-----------------|-----------------|
|-----------------|-----------------|-----------------|-----------------|
|-----------------|-----------------|-----------------|-7p5-----5p3-----|
|-5-5-5-5-5-5-5-5-|-8p7-----7p5-----|-3-3-3-3-3-3-3-3-|-----------------|
|-5-5-5-5-5-5-5-5-|-----0-0-----0-0-|-3-3-3-3-3-3-3-3-|-----0-0-----0-0-|


  N.C.
      PM    PM      PM    PM
  E E E E E E E E   E E E E E E  Q
|-----------------|------------------|
|-----------------|------------------|
|-----------------|------------------|
|-8p0---7p0---5p0-|---3p0---2p0------|
|-----------------|-------------[3]--|
|-----0-----0-----|-0-----0----------|


   Chorus
                                           1.,2.,3.
    N.C.   D5                               N.C.
   1/4    15/8                             4/4
           PM----|     PM----|    PM|           PM    PM      PM    PM
     Q     E E E E E.. E E E E E. E E E..   E E E E E E E E   E E E E E E Q   4x
||-------|--------------------------------|-----------------|-----------------||
||o------|--------------------------------|-----------------|----------------o||
||-------|--------------------------------|-----------------|-----------------||
||-------|--------------------------------|-8p0---7p0---5p0-|---3p0---2p0-----||
||o-[5]--|-0-0-0-0-----0-0-0-0----0-0-----|-----------------|-------------3--o||
||-------|-0-0-0-0-----0-0-0-0----0-0-----|-----0-----0-----|-0-----0---------||


  4.
  D5
 11/8
  PM----|    PM----|      PM---------------|      PM---------------|
  E E E E E. E E E E E.   E E E E E. E E E E E.   E E E E E. E E E E E.
|-----------------------|-----------------------|-----------------------|
|-----------------------|-----------------------|-----------------------|
|-----------------------|-----------------------|-----------------------|
|-----------------------|-----------------------|-----------------------|
|-0-0-0-0----0-0-0-0----|-0-0-0-0----0-0-0-0----|-0-0-0-0----0-0-0-0----|
|-0-0-0-0----0-0-0-0----|-0-0-0-0----0-0-0-0----|-0-0-0-0----0-0-0-0----|


                                                    1.
    D5
                                                   4/4
    Gtr I
    PM----|    PM----|      PM---------------|      PM------------|
    E E E E E. E E E E E.   E E E E E. E E E E E.   E E E E E E E E
||------------------------|-----------------------|-------------------||
||o-----------------------|-----------------------|------------------o||
||------------------------|-----------------------|-------------------||
||------------------------|-----------------------|-------------------||
||o-0-0-0-0----0-0-0-0----|-0-0-0-0----0-0-0-0----|-0-0-0-0-0-0-0-0--o||
||--0-0-0-0----0-0-0-0----|-0-0-0-0----0-0-0-0----|-0-0-0-0-0-0-0-0---||


                    Breakdown 3
  2.             Slower Q=124
  D5      D5         D5
                    7/4
                     Gtrs I, II
  PM----|            PM----|      PM------------|
  E E E E  H         S S S S H    S S S S S S S S H     4x
|----------------||-------------------------------------||
|----------------||o-----------------------------------o||
|----------------||-------------------------------------||
|----------------||-------------------------------------||
|-0-0-0-0-12\----||o-0-0-0-0------0-0-0-0-0-0-0-0------o||
|-0-0-0-0-12\----||--0-0-0-0------0-0-0-0-0-0-0-0-------||


             1.,2.,3.
  D5         D5
 2/4        7/4
             PM--|          PM----------|
   H         S S S S +H     S S S S S S S S +H      4x
|--------||-----------------------------------------||
|--------||o---------------------------------------o||
|--------||-----------------------------------------||
|--------||-----------------------------------------||
|-12\----||o-0-0-0-0-(0)----0-0-0-0-0-0-0-0-(0)----o||
|-12\----||--0-0-0-0-(0)----0-0-0-0-0-0-0-0-(0)-----||


                                               Breakdown 4
  4.                                          Slower Q=118
                                              $
  D5                                            D          Bb
 7/4                                           4/4
  Gtr II
  PM--|          PM----------|        PM----|
  S S S S +H     S S S S S S S S +Q   S S S S   W           W
|---------------------------------------------|----------|--------|
|---------------------------------------------|----------|--------|
|---------------------------------------------|-7--------|--3-----|
|---------------------------------------------|----------|--------|
|-0-0-0-0-(0)----0-0-0-0-0-0-0-0-(0)--0-0-0-0-|-5--------|--1-----|
|-0-0-0-0-(0)----0-0-0-0-0-0-0-0-(0)--0-0-0-0-|----------|--------|
|
| Gtr I
| PM--|          PM----------|        PM----|               ~~~
| S S S S +H     S S S S S S S S +Q   S S S S   W           W
|---------------------------------------------|----------|--------|
|---------------------------------------------|----------|--------|
|---------------------------------------------|-7--------|-[3]----|
|---------------------------------------------|----------|--------|
|-0-0-0-0-(0)----0-0-0-0-0-0-0-0-(0)--0-0-0-0-|-5--------|--------|
|-0-0-0-0-(0)----0-0-0-0-0-0-0-0-(0)--0-0-0-0-|----------|--------|


                                                       To Coda
  D      Bb       F        E      D      Bb       F      E
   H      H        H       H       H      H        H       H
|---------------|---------------|---------------|----------------|
|---------------|---------------|---------------|----------------|
|--7------3-----|-10-------9----|--7------3-----|-10-------9-----|
|---------------|---------------|---------------|----------------|
|--5------1-----|--8-------7----|--5------1-----|--8-------7-----|
|---------------|---------------|---------------|----------------|
|
|                                                          \7
|  H      H        q  E  e H       H      H       +H       H
|---------------|---------------|---------------|--------<12>----|
|---------------|---------------|---------------|----------------|
|-[7]-----------|---------------|-[7]-----------|----------------|
|---------------|-10--x-10-9----|---------------|----------------|
|--------[1]----|--8--x--8-7----|--------[1]----|-(1)------------|
|---------------|---------------|---------------|----------------|


 Interlude
  Faster Q=150
  D5                        Bb5
  Gtr II
  E S S E S S E S S E S S   E S S E S S E S S E S S
|-------------------------|-------------------------|
|-------------------------|-------------------------|
|-------------------------|-------------------------|
|-7-x-x-7-x-x-7-x-x-7-x-x-|-3-x-x-3-x-x-3-x-x-3-x-x-|
|-5-x-x-5-x-x-5-x-x-5-x-x-|-1-x-x-1-x-x-1-x-x-1-x-x-|
|-------------------------|-------------------------|
|
| Gtr I
| E S S E S S E S S E S S   E S S E S S E S S E S S
|-------------------------|-------------------------|
|-------------------------|-------------------------|
|-------------------------|-------------------------|
|-7-x-x-7-x-x-7-x-x-7-x-x-|-3-x-x-3-x-x-3-x-x-3-x-x-|
|-5-x-x-5-x-x-5-x-x-5-x-x-|-1-x-x-1-x-x-1-x-x-1-x-x-|
|-------------------------|-------------------------|


  G5                        E5          G5
  E S S E S S E S S E S S   E S S E S S E S S E S S
|-------------------------|----------------------------|
|-------------------------|----------------------------|
|-------------------------|----------------------------|
|-------------------------|----------------------------|
|-3-x-x-3-x-x-3-x-x-3-x-x-|-2-x-x-2-x-x-5-x-x-5-x-x----|
|-3-x-x-3-x-x-3-x-x-3-x-x-|-2-x-x-2-x-x-5-x-x-5-x-x----|
|
| E S S E S S E S S E S S   E S S E S S E S S E S S
|-------------------------|----------------------------|
|-------------------------|----------------------------|
|-------------------------|----------------------------|
|-------------------------|----------------------------|
|-3-x-x-3-x-x-3-x-x-3-x-x-|-2-x-x-2-x-x-5-x-x-5-x-x----|
|-3-x-x-3-x-x-3-x-x-3-x-x-|-2-x-x-2-x-x-5-x-x-5-x-x----|


  D5                        Bb5
  E S S E S S E S S E S S   E S S E S S E S S E S S
|-------------------------|-------------------------|
|-------------------------|-------------------------|
|-------------------------|-------------------------|
|-7-x-x-7-x-x-7-x-x-7-x-x-|-3-x-x-3-x-x-3-x-x-3-x-x-|
|-5-x-x-5-x-x-5-x-x-5-x-x-|-1-x-x-1-x-x-1-x-x-1-x-x-|
|-------------------------|-------------------------|
|
| E S S E S S E S S E S S   E S S E S S E S S E S S
|-------------------------|-------------------------|
|-------------------------|-------------------------|
|-------------------------|-------------------------|
|-7-x-x-7-x-x-7-x-x-7-x-x-|-3-x-x-3-x-x-3-x-x-3-x-x-|
|-5-x-x-5-x-x-5-x-x-5-x-x-|-1-x-x-1-x-x-1-x-x-1-x-x-|
|-------------------------|-------------------------|


  G5                        E5          G5
  E S S E S S E S S E S S   E S S E S S E S S E S S
|-------------------------|----------------------------|
|-------------------------|----------------------------|
|-------------------------|----------------------------|
|-------------------------|----------------------------|
|-3-x-x-3-x-x-3-x-x-3-x-x-|-2-x-x-2-x-x-5-x-x-5-x-x----|
|-3-x-x-3-x-x-3-x-x-3-x-x-|-2-x-x-2-x-x-5-x-x-5-x-x----|
|
| E S S E S S E S S E S S   E S S E S S E S S E S S
|-------------------------|----------------------------|
|-------------------------|----------------------------|
|-------------------------|----------------------------|
|-------------------------|----------------------------|
|-3-x-x-3-x-x-3-x-x-3-x-x-|-2-x-x-2-x-x-5-x-x-5-x-x----|
|-3-x-x-3-x-x-3-x-x-3-x-x-|-2-x-x-2-x-x-5-x-x-5-x-x----|


 Solo
  D5
   E        S    S     E        S    S     E        S    S     E        S    S
|---------------------------------------------------------------------------------|
|---------------------------------------------------------------------------------|
|---------------------------------------------------------------------------------|
|--7--------x----x-----7--------x----x-----7--------x----x-----7--------x----x----|
|--5--------x----x-----5--------x----x-----5--------x----x-----5--------x----x----|
|---------------------------------------------------------------------------------|
|
|  T        T          T        T          T        T          T        T
|  |--3--|  |---3---|  |--3--|  |---3---|  |--3--|  |---3---|  |--3--|  |---3---|
|  S  S  S  S  S    S  S  S  S  S  S    S  S  S  S  S  S    S  S  S  S  S  S    S
|-17-13p10-17-13p==10-17-13p10-17-13p==10-17-13p10-17-13p==10-17-13p10-17-13p==10-|
|---------------------------------------------------------------------------------|
|---------------------------------------------------------------------------------|
|---------------------------------------------------------------------------------|
|---------------------------------------------------------------------------------|
|---------------------------------------------------------------------------------|


  Bb5
   E        S    S     E        S    S     E        S    S     E        S    S
|-----------------------------------------------------------------------------------|
|-----------------------------------------------------------------------------------|
|-----------------------------------------------------------------------------------|
|--3--------x----x-----3--------x----x-----3--------x----x-----3--------x----x------|
|--1--------x----x-----1--------x----x-----1--------x----x-----1--------x----x------|
|-----------------------------------------------------------------------------------|
|
|  T        T          T        T          T        T          T        T
|  |--3--|  |---3---|  |--3--|  |---3---|  |--3--|  |---3---|  |--3--|  |---3---|
|  S  S  S  S  S    S  S  S  S  S  S    S  S  S  S  S  S    S  S  S  S  S  S    S
|-18-13p10-18-13p==10-18-13p10-18-13p==10-18-13p10-18-13p==10-18-13p10-18-13p==10---|
|-----------------------------------------------------------------------------------|
|-----------------------------------------------------------------------------------|
|-----------------------------------------------------------------------------------|
|-----------------------------------------------------------------------------------|
|-----------------------------------------------------------------------------------|


  F5
   E        S    S     E        S    S     E        S    S     E        S    S
|---------------------------------------------------------------------------------|
|---------------------------------------------------------------------------------|
|---------------------------------------------------------------------------------|
|---------------------------------------------------------------------------------|
|--3--------x----x-----3--------x----x-----3--------x----x-----3--------x----x----|
|--3--------x----x-----3--------x----x-----3--------x----x-----3--------x----x----|
|
|  T        T          T        T          T        T          T        T
|  |--3--|  |---3---|  |--3--|  |---3---|  |--3--|  |---3---|  |--3--|  |---3---|
|  S  S  S  S  S    S  S  S  S  S  S    S  S  S  S  S  S    S  S  S  S  S  S    S
|-19-13p10-19-13p==10-19-13p10-19-13p==10-19-13p10-19-13p==10-19-13p10-19-13p==10-|
|---------------------------------------------------------------------------------|
|---------------------------------------------------------------------------------|
|---------------------------------------------------------------------------------|
|---------------------------------------------------------------------------------|
|---------------------------------------------------------------------------------|


  E5                G5
   E    S S  E  S S E  S S  E  S S
|----------------------------------|
|----------------------------------|
|----------------------------------|
|----------------------------------|
|--2----x-x--2--x-x-5--x-x--5--x-x-|
|--2----x-x--2--x-x-5--x-x--5--x-x-|
|
|  Q         E  Q      E    E  E
|-13b15r====13-10------------------|
|---------------------13---11-13---|
|----------------------------------|
|----------------------------------|
|----------------------------------|
|----------------------------------|


  D5                                     Bb5
    E     S S   E   S S E  S S  E  S S   E      S     S E     S     S E     S     S E     S     S
|--------------------------------------|----------------------------------------------------------|
|--------------------------------------|----------------------------------------------------------|
|--------------------------------------|----------------------------------------------------------|
|---7-----x-x---7---x-x-7--x-x--7--x-x-|-3------x-----x-3-----x-----x-3-----x-----x-3-----x-----x-|
|---5-----x-x---5---x-x-5--x-x--5--x-x-|-1------x-----x-1-----x-----x-1-----x-----x-1-----x-----x-|
|--------------------------------------|----------------------------------------------------------|
|
|                                        |----3----|    |---3----|    |---3----|    |---3----|
|  +Q          +E   Q      E    E  E     E   E     E    E  E     E    E  E     E    E  E     E
|--------------------------------------|----------------------------------------------------------|
|-(13)b15r====(13)---------------------|----------------------------------------------------------|
|------------------12------------------|----------------------------------------------------------|
|-------------------------10---12-10---|-8h(10)p==(8)---7h(8)p==(7)---5h(7)p==(5)---3h(5)p==(3)---|
|--------------------------------------|----------------------------------------------------------|
|--------------------------------------|----------------------------------------------------------|


                                                 D.S. al Coda
  F5                                                    E5
  E     S     S E     S     S E     S     S  E   S  S     W
|-----------------------------------------------------|----------|
|-----------------------------------------------------|----------|
|-----------------------------------------------------|----------|
|-----------------------------------------------------|----------|
|-3-----x-----x-3-----x-----x-3-----x-----x--3---x--x-|---2------|
|-3-----x-----x-3-----x-----x-3-----x-----x--3---x--x-|---2------|
|
|                                                         \7
| |---3----|    |---3----|    |---3----|
| E  E     E    E  E     E    E  E     E     E   E        W
|-----------------------------------------------------|-<12>-----|
|-----------------------------------------------------|----------|
|-----------------------------------------------------|----------|
|-----------------------------------------------<7>---|----------|
|-5h(7)p==(5)---3h(5)p==(3)---2h(3)p==(2)---<7>-------|----------|
|-----------------------------------------------------|----------|


   Outro
    Slower Q=112
    &
    F                Em               Dm               F     Em
    Gtr III
    E E E H    +E    E E E H    +E    E E E H    +E    E E E E E E Q    5x
||-----------------|----------------|----------------|------------------||
||o----------------|----------------|----------------|-----------------o||
||-----------------|----------------|----------------|------------------||
||--7---7----------|-5---5----------|-3---3----------|-7-----5----------||
||o---8---8----(8)-|---7---7----(7)-|---5---5----(5)-|---8-----7---7---o||
||-----------------|----------------|----------------|-----0-----0------||
|
|   Gtr IV
|   E E E H    +E    E E E H    +E    E E E H    +E    E E E E E E Q    5x
||-----------------|----------------|----------------|------------------||
||o----------------|----------------|----------------|-----------------o||
||-----------------|----------------|----------------|------------------||
||--7---7----------|-5---5----------|-3---3----------|-7-----5----------||
||o---8---8----(8)-|---7---7----(7)-|---5---5----(5)-|---8-----7---7---o||
||-----------------|----------------|----------------|-----0-----0------||


                                  H.=H
  F                Em               Dm               F   Em  Dm  C     Dm
  E E E H    +E    E E E H    +E    E E E H    +E    E E E E E E E E    W
|----------------|----------------|----------------|-----------------|-------*|
|----------------|----------------|----------------|-----------------|-------*|
|----------------|----------------|----------------|-----------------|-------*|
|-7---7----------|-5---5----------|-3---3----------|-7---5---3---2---|-^3----*|
|---8---8----(8)-|---7---7----(7)-|---5---5----(5)-|---8---7---5---3-|-^5----*|
|----------------|----------------|----------------|-----------------|-------*|
|
| E E E H    +E    E E E H    +E    E E E H    +E    E E E E E E E E    W
|----------------|----------------|----------------|-----------------|-------*|
|----------------|----------------|----------------|-----------------|-------*|
|----------------|----------------|----------------|-----------------|-------*|
|-7---7----------|-5---5----------|-3---3----------|-7---5---3---2---|-^3----*|
|---8---8----(8)-|---7---7----(7)-|---5---5----(5)-|---8---7---5---3-|-^5----*|
|----------------|----------------|----------------|-----------------|-------*|





Comments


Popular Bleeding Through tabs & chords
Murder By Numbers Bass Tabs
Truth Bass Tabs
Turns Cold To The Touch Bass Tabs
Kill To Believe Tabs
Line In The Sand Tabs
On Wings Of Lead 1 Tabs
Return To Sender Intro Tabs
Revenge I Seek Tabs
Truth 1 Tabs
Turns Cold To The Touch Tabs


Song lyrics



↑ Back to top | Tablatures and chords are parodies/interpretations of the original songs. You may use it for private study, scholarship, research or language learning purposes only
© 2014 AZChords.com Contact us | Privacy policy | DMCA | Add/correct tabs | Request tabs | Top 50 tabs