» » »

Love Lost In A Hail Of Gunfire Bass tabs (ver.2)

Artists:  A B C D E F G H I J K L M N O P Q R S T U V W X Y Z # 

Love Lost In A Hail Of Gunfire Bass tabs (ver.2)

Bleeding Through
Rating:
2/5 (3 votes)

Tabs too difficult? Try these video lessons and learn fast.
                Band: Bleeding Through
Bassist: Ryan Wombacher 
Tuning: beadg (standard 5 string tuning)


intro                  
G|------------------------|x1
D|------------------------|
A|-2--------5-4---7-5-4-5-|
E|--------3-----5---------|
B|------------------------|

Riff 1
G|-----------------------------------|x2
D|-----------------------------------|
A|-2-2-2-0-2-3-2-0-----5-4---7-5-4-5-|
E|-----------------2-3-----5---------|
B|-----------------------------------|

riff 2
G|--------------------------------------------|x2
D|--------------------------------------------|
A|--------------------------------------------|
E|--------------------------------------------|
B|-320-320-320-320-0-0-320-320-320-320-3-5-2-3|

riff 1 x4

riff 3
G|---------------------------|-----------------------------|
D|---------------------------|-----------------------------|
A|----------------22222222222|----------------2222222222222|
E|-33333333333333------------|-33333333333333--------------|
B|---------------------------|-----------------------------|

riff 4                        not quite sure about this bit, but i think it is quite close.
G|---------------------------|-4---2---0----------|
D|---------------------------|---4---2---0-4---2--|
A|---------------------------|---------------4---2|
E|-000000000000-3333333333333|--------------------|
B|---------------------------|--------------------|

riff 1 x2

riff 2 x2

riff 5
G|-------------------|---------------------|x4
D|-------------------|---------------------|
A|-------------------|---------------------|
E|-------------------|---------------------|
B|-0-0-0-000--3-5-2-3|-0-0-0-000-000-000000|

riff 1 x4

riff 3 x1

riff 6
G|---------------------------|-4---2---0---------------------|repeat 2nd bit 4 times
D|---------------------------|---4---2---0-4---2-------------|
A|---------------------------|---------------4---2-----------|
E|-000000000000-3333333333333|-------------------------------|
B|---------------------------|---------------------000-000-00|

riff 7 "I dont care!"
G|--------------------------------|
D|--------------------------------|
A|--------------------------------|
E|--------------------------------|
B|-000-000-000-000-000-000-000-000|

rest for the guitar bit 

then repeat riff 7 two times, on the second time letting the notes ring.

riff 8 "and my heart belongs to you"
G|-------------|x2
D|-------------|
A|-------------|
E|-3~--0~------|
B|---------0~--|

riff 9
G|-------------------------------------------------------|x4
D|-------------------------------------------------------|
A|-------------------------------------------5-4-2-/7-5-4|
E|-3-333-333-333-33-0-000-000-000-00---------------------|
B|-----------------------------------0-0-0-0-------------|

riff 8 x2 

riff 10 (slow ending)
G|-----------------------------------------------------------|
D|-----------------------------------------------------------|
A|-----------------------------------------9h10p9-5-4-7-5-4-5|
E|-3-3-3-3-3-3-3-3-0-0-0-0-0-0-0-0---------------------------|
B|---------------------------------0-0-0-0-------------------|

G|------------------------------------------------------|x4 
D|-----------------------------------------------2-4----|
A|-----------------------------------------2-4-5-----5-4|
E|-3-3-3-3-3-3-3-3-0-0-0-0-0-0-0-0----------------------|
B|---------------------------------0-0-0-0--------------|

And thats it! i tabbed it cause no offence but the other tabs for it were way off!
and I am pretty sure this is right.

enjoy!

-Luke Booth
            
Tabs too difficult? Try these video lessons and learn fast.


comments powered by Disqus
↑ Back to top | Tablatures and chords are parodies/interpretations of the original songs. You may use it for private study, scholarship, research or language learning purposes only