>
 >
Love Lost In A Hail Of Gunfire

Love Lost In A Hail Of Gunfire Bass Tabs

Bleeding Through - Love Lost In A Hail Of Gunfire chords, tabs, tablatures, lyrics

Guitar lessons | Add/correct | Request | Top 50 tabs Artists:  A B C D E F G H I J K L M N O P Q R S T U V W X Y Z 0-9

Love Lost In A Hail Of Gunfire Bass Tabs – Bleeding Through

CD, Sheet music, Poster

Do you like Love Lost In A Hail Of Gunfire? Share with your friends now
Bass TabsBass Tabs v2Drum TabsTabsTabs v2Tabs v3
Band: Bleeding Through
Bassist: Ryan Wombacher

Intro (0:18)
F |-----------------|
C |-----------------|
G |-----------------|
C |--3-2-0-5-3-2-3--|

Riff 1 (0:20)
F |--------------------------------|
C |--------------------------------|
G |--------------------------------|
C |--7-7-5-8-7-5-7--3-2-0-5-3-2-3--|

Riff 2 (0:28)
F |---------------------------------------------------|
C |---------------------------------------------------|
G |---------------------------------------------------|
C |--2p0-2p0-2p0-2p0-2-3-2-0-2p0-2p0-2p0-2p0-2-3-0-2--|

Riff 1 (0:37)

Riff 3 (0:53)
F |---------------------------------------|
C |---------------------------------------|
G |--00000000-33333333-00000000-33333333--|
C |---------------------------------------|

F |-----------------------------------|
C |-----------------------------------|
G |-----------------------------------|
C |--55555555-88888888-8-7-5-3-2h3p2--|

Riff 1 (1:07)
Riff 2 (1:15)

Fill 1 (1:24)
F |-----------|
C |-----------|
G |-----------|
C |--2-3-0-2--|

Riff 4 (1:26) (play open C in rhythm and play the end part where 
needed)
F |------------|-----------|
C |------------|-----------|
G |------------|-----------|
C |--000-0-00--|--2-3-0-2--|

Riff 1 (1:52)
Riff 3 (2:09)

Riff 5 (2:23)
F |------------------------------|
C |------------------------------|
G |------------------------------|
C |--0000-0000-00-8-7-5-3-2h3p2--|

Riff 6 (2:36)
F |-----------------------|
C |-----------------------|
G |-----------------------|
C |--0000-0000-0000-0000--|

Riff 7 (2:50)
F |---------------------|
C |---------------------|
G |---------------------|
C |--0000-0000000-0000--|

Riff 8 (3:04)
F |------------------|
C |------------------|
G |------------------|
C |--0000~-0000000~--|

I\'m not 100% sure of any riff past this point...

Riff 9 (3:17)
F |--------------------------|
C |--------------------------|
G |-----------0-3-1-0-1/5-7--|
C |--7~-5~-2~----------------|

Riff 10 (3:30)
F |---------------------------------|
C |---------------------------------|
G |-----------------8-7-8-10-8-7-8--|
C |--7777-5555-2222-----------------|

Riff 9 (3:55)

Riff 11 (4:08)
F |--------------------------------|
C |--------------------------------|
G |-----------10h12p10-8h10p8-7h8--|
C |--7~-5~-2~----------------------|

F |---------------------------------|
C |---------------------------------|
G |-----------2-3-5-7-8-10h12-8-10--|
C |--7~-5~-2~-----------------------|

Ending (4:43)
F |---------------------------------------|
C |---------------------------------------|
G |-----------0h2-2h3-3h5-5h7-7-5-3p2-0~--|
C |--7~-5~-2~-----------------------------|





Comments


Popular Bleeding Through tabs & chords
Hemlock Society Bass Tabs
Murder By Numbers Bass Tabs
Truth Bass Tabs
Line In The Sand Tabs
Love In Slow Motion Tabs
Love Lost In A Hail Of Gunfire Tabs
On Wings Of Lead Tabs
Tragedy Of Empty Streets Tabs
Truth Tabs
Truth 1 Tabs


Song lyrics



↑ Back to top | Tablatures and chords are parodies/interpretations of the original songs. You may use it for private study, scholarship, research or language learning purposes only
© 2014 AZChords.com Contact us | Privacy policy | DMCA | Add/correct tabs | Request tabs | Top 50 tabs