» » »

Love Lost In A Hail Of Gunfire Tabs (ver.2)

Artists:  A B C D E F G H I J K L M N O P Q R S T U V W X Y Z # 

Love Lost In A Hail Of Gunfire Tabs (ver.2)

Bleeding Through
Rating:
4/5 (6 votes)

Hard to play? Try these video lessons and learn fast.
                Bleeding Through - Love Lost in a Hale of Gunfire

Tune to Dropped B

Main Riff/Verse "You are the f**king disease..."
|----------------------------------------------------------------|
|----------------------------------------------------------------|
|----------------------------------------------------------------|
|-----------------------------------33332222----5555333322223333-|
|-----5---5---3---6---5---3---5-------------3333-----------------|
|-0-0---0---0---0---0---0---0----0-------------------------------|
  . .   .   .   .   .   .   .    

Before Verse
|---------------------------------|-------------------------------|
|---------------------------------|-------------------------------|
|---------------------------------|-------------------------------|
|---------------------------------|-------------------------------|
|-6p0-0-3p0-0-1p0-0-3p0-0-1p0-1p0-|-6p0-0-3p0-0-1p0-0-5--6--3--5--|
|-6p0-0-3p0-0-1p0-0-3p0-0-1p0-1p0-|-6p0-0-3p0-0-1p0-0-5--6--3--5--|

Bridge "Now I rise from my knees..."
|-------------------------------------------------------------------------------------------------|
|-------------------------------------------------------------------------------------------------|
|-------------------------------------------------------------------------------------------------|
|-----------------8p7-----7p5-----------------------------------------------------7p5-----5p3-----|
|-8-8-8-8-8-8-8-8-----------------5-5-5-5-5-5-5-5-8p7-----7p5-----7-7-7-7-7-7-7-7-----------------|
|-8-8-8-8-8-8-8-8-----0-0-----0-0-5-5-5-5-5-5-5-5-----0-0-----0-0-7-7-7-7-7-7-7-7-----0-0-----0-0-|
                      . .     . .                     . .     . .                     . .     . .
|-------------------------------------------------------------------------------------------------|
|-------------------------------------------------------------------------------------------------|
|-------------------------------------------------------------------------------------------------|
|-------------------------------------------------7p5-----5p3---------------------8p7-----7p5-----|
|-5-5-5-5-5-5-5-5-8p7-----7p5-----3-3-3-3-3-3-3-3-----------------8-8-8-8-8-8-8-8-----------------|
|-5-5-5-5-5-5-5-5-----0-0-----0-0-3-3-3-3-3-3-3-3-----0-0-----0-0-8-8-8-8-8-8-8-8-----0-0-----0-0-|
                      . .     . .                     . .     . .                     . .     . .

"You won't see me..."
|--------------------------------|
|--------------------------------|
|--------------------------------|
|-8p0---7p0---5p0---3p0---2p0----|
|-----------------------------3--|
|-----0-----0-----0-----0--------|
      .     .     .     .

"Now what's left is a bitter taste..."
|-------------------------------------------------------|
|-------------------------------------------------------|
|-------------------------------------------------------|
|-------------------------------------------------------|
|-0--0--0--000----5-6-3-5-0--0--0--000---000---00000000-|
|-0--0--0--000----5-6-3-5-0--0--0--000---000---00000000-|
  .  .  .  ...            .  .  .  ...   ...   ........

"You cannot destroy me..."                          "So look at you f**king horror..."
|--------------------------------------------------|-------------------------|
|--------------------------------------------------|-------------------------|
|--------------------------------------------------|-------------------------|
|-------------------8p0---7p0---5p0---3p0---2p0----|-------------------------|
|-5--0000--0000--00-----------------------------3--|-0000--0000--0000--0000--|
|----0000--0000--00-----0-----0-----0-----0--------|-0000--0000--0000--0000--|
     ....  ....  ..     .     .     .     .          ....  ....  ....  ....
"Horror..."                        "I wanna see your face..."
|----------------------------------|----------------------|
|----------------------------------|----------------------|
|----------------------------------|----------------------|
|----------------------------------|----------------------|
|-0000--0000--0000--0000--00000000-|-0000--------00000000-|
|-0000--0000--0000--0000--00000000-|-0000--------00000000-|
  ....  ....  ....  ....  ........   ....        ........
              "And my heart belongs to you..."
|-------------|--------------------------|------------------------------------------------------------------|
|-------------|--------------------------|------------------------------------------------------------------|
|-7-----3-----|-7-----3-----10-----9-----|------------------------------------------------------------------|
|-------------|--------------------------|-7-777-777-777-773-333-333-333-33---------------------------------|
|-5-----1-----|-5-----1-----8------7-----|-5-555-555-555-551-111-111-111-113-333-333-333-332-222-225-555-55-|
|-------------|--------------------------|---------------------------------3-333-333-333-332-222-225-555-55-|
                                             ..  ..  ..  ..  ..  ..  ..  ..  ..  ..  ..  ..  ..  ..  ..  ..
"And my heart still beats..."
|------------------------------------------------|-------------------|
|------------------------------------------------|-------------------|
|------------------------------------------------|-------------------|
|-7---7------5---5------3---3------7-----5-------|-7---5---3---2---3-|
|---8---8------7---7------5---5------8-----7---7-|---8---7---5---3-5-|
|--------------------------------------0-----0---|-------------------|

Okay, this tab isn't 100% complete, or accurate, but it should give you a good idea of how to play the song.
            
Hard to play? Try these video lessons and learn fast. | Correct




comments powered by Disqus
↑ Back to top | Tablatures and chords are parodies/interpretations of the original songs. You may use it for private study, scholarship, research or language learning purposes only