>
 >
Love Lost In A Hail Of Gunfire

Love Lost In A Hail Of Gunfire Guitar Tabs

Bleeding Through - Love Lost In A Hail Of Gunfire chords, tabs, tablatures, lyrics

Guitar lessons | Add/correct | Request | Top 50 tabs Artists:  A B C D E F G H I J K L M N O P Q R S T U V W X Y Z 0-9

Love Lost In A Hail Of Gunfire Guitar Tabs – Bleeding Through

CD, Sheet music, Poster

Do you like Love Lost In A Hail Of Gunfire? Share with your friends now
Bass TabsBass Tabs v2Drum TabsTabsTabs v2Tabs v3
Bleeding Through

Gtr I (B F# B E G# C#) - 'Untitled'
Gtr II (B F# B E G# C#) - 'Untitled'

  Q=240
 4/4
             Gtr I
  W          E H       Q.       W
|----------|------------------|----------------|
|----------|------------------|----------------|
|----------|------------------|----------------|
|----------|-7----------------|----------------|
|----------|-5----------------|----------------|
|----------|------------------|----------------|
|
|            Gtr II
|              PM  PM  PM   PM    PM  PM  PM
| W          E E E E E E  E E   E E E E E E Q
|----------|------------------|----------------|
|----------|------------------|----------------|
|----------|------------------|----------------|
|----------|------------------|----------------|
|----------|-5---5---5----3---|-6---5---3---0--|
|----------|---0---0---0----0-|---0---0---0----|


     TP TP TP    TP TP TP  TP
  Q  Q  Q  Q     Q  Q  Q   Q
|-------------|------------------|
|-------------|------------------|
|-------------|------------------|
|-------------|------------------|
|----8--7-----|-10--8--7---8-----|
|----------8--|------------------|
|
|    TP TP TP    TP TP TP
| Q  Q  Q  Q     Q  Q  Q   Q
|-------------|------------------|
|-------------|------------------|
|-------------|------------------|
|-------------|------------------|
|----8--7-----|-10--8--7--[8]----|
|-8--------8--|------------------|


    PM|   PM  PM  PM    PM  PM  PM        TP TP TP    TP TP TP  TP
    E E E E E E E E   E E E E E E Q    Q  Q  Q  Q     Q  Q  Q   Q
||------------------|----------------|-------------|------------------||
||o-----------------|----------------|-------------|-----------------o||
||------------------|----------------|-------------|------------------||
||------------------|----------------|-------------|------------------||
||o-----5---5---3---|-6---5---3---5--|----8--7-----|-10--8--7---8----o||
||--0-0---0---0---0-|---0---0---0----|-8--------8--|------------------||
|
|   PM|   PM  PM  PM    PM  PM  PM        TP TP TP    TP TP TP
|   E E E E E E E E   E E E E E E Q    Q  Q  Q  Q     Q  Q  Q   Q
||------------------|----------------|-------------|------------------||
||o-----------------|----------------|-------------|-----------------o||
||------------------|----------------|-------------|------------------||
||------------------|----------------|-------------|------------------||
||o-----5---5---3---|-6---5---3---5--|----8--7-----|-10--8--7--[8]---o||
||--0-0---0---0---0-|---0---0---0----|-8--------8--|------------------||


    Gtrs I, II
    E Q  E Q  E E   +E  E Q  E Q.     E Q  E Q  E E   Q  Q  Q  Q
||----------------|-----------------|---------------|---------------||
||o---------------|-----------------|---------------|--------------o||
||----------------|-----------------|---------------|---------------||
||----------------|-----------------|---------------|---------------||
||o-3p0--6p0--3p0-|-(0)-6p0--3p0----|-3p0--6p0--3p0-|-3--5--1--3---o||
||--3p0--6p0--3p0-|-(0)-6p0--3p0----|-3p0--6p0--3p0-|-3--5--1--3----||


    Gtr I
    PM|   PM  PM  PM    PM  PM  PM        TP TP TP    TP TP TP  TP
    E E E E E E E E   E E E E E E Q    Q  Q  Q  Q     Q  Q  Q   Q     4x
||------------------|----------------|-------------|------------------||
||o-----------------|----------------|-------------|-----------------o||
||------------------|----------------|-------------|------------------||
||------------------|----------------|-------------|------------------||
||o-----5---5---3---|-6---5---3---5--|----8--7-----|-10--8--7---8----o||
||--0-0---0---0---0-|---0---0---0----|-8--------8--|------------------||
|
|   Gtr II
|   PM|   PM  PM  PM    PM  PM  PM        TP TP TP    TP TP TP
|   E E E E E E E E   E E E E E E Q    Q  Q  Q  Q     Q  Q  Q   Q     4x
||------------------|----------------|-------------|------------------||
||o-----------------|----------------|-------------|-----------------o||
||------------------|----------------|-------------|------------------||
||------------------|----------------|-------------|------------------||
||o-----5---5---3---|-6---5---3---5--|----8--7-----|-10--8--7--[8]---o||
||--0-0---0---0---0-|---0---0---0----|-8--------8--|------------------||


    Gtrs I, II
    PM------------|                     PM------------|
    E E E E E E E E   E E E E E E E E   E E E E E E E E   E E E E E E E E
||------------------|-----------------|-----------------|-------------------||
||o-----------------|-----------------|-----------------|------------------o||
||------------------|-----------------|-----------------|-------------------||
||------------------|-8-7-5-0---------|-----------------|-------------------||
||o-8-8-8-8-8-8-8-8-|---------8-7-5-0-|-0-0-0-0-0-0-0-0-|-8-7-5-0----------o||
||--8-8-8-8-8-8-8-8-|-----------------|-0-0-0-0-0-0-0-0-|---------8-7-5-0---||


  PM------------|
  E E E E E E E E   E E E E E E E E   E E E E E E E E    E E E E  E E E E
|-----------------|-----------------|-----------------|-------------------|
|-----------------|-----------------|-----------------|-------------------|
|-----------------|-----------------|-----------------|-------------------|
|-----------------|-8-7-5-0---------|-----------------|-10-8-7-0----------|
|-5-5-5-5-5-5-5-5-|---------8-7-5-0-|-8-8-8-8-8-8-8-8-|----------10-8-7-0-|
|-5-5-5-5-5-5-5-5-|-----------------|-8-8-8-8-8-8-8-8-|-------------------|


   E  E E  E E E  E  E   E  E E E Q  Q
|----------------------|----------------|
|----------------------|----------------|
|----------------------|----------------|
|-12p10---10p8---------|----------------|
|----------------12p10-|---10p8---7-----|
|----------------------|-------------7--|


    Gtr I
    PM|   PM  PM  PM    PM  PM  PM        TP TP TP    TP TP TP  TP
    E E E E E E E E   E E E E E E Q    Q  Q  Q  Q     Q  Q  Q   Q
||------------------|----------------|-------------|------------------||
||o-----------------|----------------|-------------|-----------------o||
||------------------|----------------|-------------|------------------||
||------------------|----------------|-------------|------------------||
||o-----5---5---3---|-6---5---3---5--|----8--7-----|-10--8--7---8----o||
||--0-0---0---0---0-|---0---0---0----|-8--------8--|------------------||
|
|   Gtr II
|   PM|   PM  PM  PM    PM  PM  PM        TP TP TP    TP TP TP
|   E E E E E E E E   E E E E E E Q    Q  Q  Q  Q     Q  Q  Q   Q
||------------------|----------------|-------------|------------------||
||o-----------------|----------------|-------------|-----------------o||
||------------------|----------------|-------------|------------------||
||------------------|----------------|-------------|------------------||
||o-----5---5---3---|-6---5---3---5--|----8--7-----|-10--8--7--[8]---o||
||--0-0---0---0---0-|---0---0---0----|-8--------8--|------------------||


    Gtrs I, II
    E Q  E Q  E E   +E  E Q  E Q.     E Q  E Q  E E   Q  Q  Q  Q
||----------------|-----------------|---------------|---------------||
||o---------------|-----------------|---------------|--------------o||
||----------------|-----------------|---------------|---------------||
||----------------|-----------------|---------------|---------------||
||o-3p0--6p0--3p0-|-(0)-6p0--3p0----|-3p0--6p0--3p0-|-3--5--1--3---o||
||--3p0--6p0--3p0-|-(0)-6p0--3p0----|-3p0--6p0--3p0-|-3--5--1--3----||


  Q=120
                  PM-----------|
  Q  Q  Q  Q      E. E. Q  S S S E.   H    E E E E
|-------------||--------------------|--------------
|-------------||o-------------------|--------------
|-------------||--------------------|--------------
|-------------||--------------------|--------------
|-3--5--1--3--||o-0--0--0--0-0-0----|------3-5-1-3-
|-3--5--1--3--||--0--0--0--0-0-0----|------3-5-1-3-


  PM-------------------------------------------|
  E. E. Q  S S S E.   E S S S E. S S S S S S S S  4x
|-------------------|-----------------------------||
|-------------------|----------------------------o||
|-------------------|-----------------------------||
|-------------------|-----------------------------||
|-0--0--0--0-0-0----|---0-0-0----0-0-0-0-0-0-0-0-o||
|-0--0--0--0-0-0----|---0-0-0----0-0-0-0-0-0-0-0--||


    Q=240
    Gtr I
    PM|   PM  PM  PM    PM  PM  PM        TP TP TP    TP TP TP  TP
    E E E E E E E E   E E E E E E Q    Q  Q  Q  Q     Q  Q  Q   Q
||------------------|----------------|-------------|------------------||
||o-----------------|----------------|-------------|-----------------o||
||------------------|----------------|-------------|------------------||
||------------------|----------------|-------------|------------------||
||o-----5---5---3---|-6---5---3---5--|----8--7-----|-10--8--7---8----o||
||--0-0---0---0---0-|---0---0---0----|-8--------8--|------------------||
|
|   Gtr II
|   PM|   PM  PM  PM    PM  PM  PM        TP TP TP    TP TP TP
|   E E E E E E E E   E E E E E E Q    Q  Q  Q  Q     Q  Q  Q   Q
||------------------|----------------|-------------|------------------||
||o-----------------|----------------|-------------|-----------------o||
||------------------|----------------|-------------|------------------||
||------------------|----------------|-------------|------------------||
||o-----5---5---3---|-6---5---3---5--|----8--7-----|-10--8--7--[8]---o||
||--0-0---0---0---0-|---0---0---0----|-8--------8--|------------------||


    Gtrs I, II
    PM------------|                     PM------------|
    E E E E E E E E   E E E E E E E E   E E E E E E E E   E E E E E E E E
||------------------|-----------------|-----------------|-------------------||
||o-----------------|-----------------|-----------------|------------------o||
||------------------|-----------------|-----------------|-------------------||
||------------------|-8-7-5-0---------|-----------------|-------------------||
||o-8-8-8-8-8-8-8-8-|---------8-7-5-0-|-0-0-0-0-0-0-0-0-|-8-7-5-0----------o||
||--8-8-8-8-8-8-8-8-|-----------------|-0-0-0-0-0-0-0-0-|---------8-7-5-0---||


  PM------------|
  E E E E E E E E   E E E E E E E E   E E E E E E E E    E E E E  E E E E
|-----------------|-----------------|-----------------|-------------------|
|-----------------|-----------------|-----------------|-------------------|
|-----------------|-----------------|-----------------|-------------------|
|-----------------|-8-7-5-0---------|-----------------|-10-8-7-0----------|
|-5-5-5-5-5-5-5-5-|---------8-7-5-0-|-8-8-8-8-8-8-8-8-|----------10-8-7-0-|
|-5-5-5-5-5-5-5-5-|-----------------|-8-8-8-8-8-8-8-8-|-------------------|


   E  E E  E E E  E  E   E  E E E Q  Q
|----------------------|----------------|
|----------------------|----------------|
|----------------------|----------------|
|-12p10---10p8---------|----------------|
|----------------12p10-|---10p8---7-----|
|----------------------|-------------7--|


    Gtr I
          PM------------------------|
      Q   E E E E Q    E E E E Q  E E
||-------------------|----------------|
||o------------------|----------------|
||-------------------|----------------|
||-------------------|----------------|
||o-------0-0-0-0----|-0-0-0-0----0-0-|
||--------0-0-0-0----|-0-0-0-0----0-0-|
|
|   Gtr II
|         PM------------------------|
|     Q   E E E E Q    E E E E Q  E E
||-------------------|----------------|
||o------------------|----------------|
||-------------------|----------------|
||-------------------|----------------|
||o-[12]--0-0-0-0----|-0-0-0-0----0-0-|
||--------0-0-0-0----|-0-0-0-0----0-0-|


   E  E E  E E E  E  E   E  E E E Q  Q    3x
|----------------------|------------------||
|----------------------|-----------------o||
|----------------------|------------------||
|-12p10---10p8---------|------------------||
|----------------12p10-|---10p8---7------o||
|----------------------|-------------7----||
|
|  E  E E  E E E  E  E   E  E E E Q  Q    3x
|----------------------|------------------||
|----------------------|-----------------o||
|----------------------|------------------||
|-12p10---10p8---------|------------------||
|----------------12p10-|---10p8---7------o||
|----------------------|-------------7----||


        PM--------------------------------------------------------|
    Q   E E E E Q      E E E E Q  E E   E E Q  E E E E   Q  E E E E Q
|------------------||-----------------|----------------|----------------||
|------------------||o----------------|----------------|---------------o||
|------------------||-----------------|----------------|----------------||
|------------------||-----------------|----------------|----------------||
|-------0-0-0-0----||o-0-0-0-0----0-0-|-0-0----0-0-0-0-|----0-0-0-0----o||
|-------0-0-0-0----||--0-0-0-0----0-0-|-0-0----0-0-0-0-|----0-0-0-0-----||
|
|       PM--------------------------------------------------------|
|   Q   E E E E Q      E E E E Q  E E   E E Q  E E E E   Q  E E E E Q
|------------------||-----------------|----------------|----------------||
|------------------||o----------------|----------------|---------------o||
|------------------||-----------------|----------------|----------------||
|------------------||-----------------|----------------|----------------||
|-[12]--0-0-0-0----||o-0-0-0-0----0-0-|-0-0----0-0-0-0-|----0-0-0-0----o||
|-------0-0-0-0----||--0-0-0-0----0-0-|-0-0----0-0-0-0-|----0-0-0-0-----||


  PM-----------------------------------------------------------------
  E E E E Q  E E   E E Q  E E E E   Q  E E E E E E   E E E E E E Q
|----------------|----------------|----------------|----------------|
|----------------|----------------|----------------|----------------|
|----------------|----------------|----------------|----------------|
|----------------|----------------|----------------|----------------|
|-0-0-0-0----0-0-|-0-0----0-0-0-0-|----0-0-0-0-0-0-|-0-0-0-0-0-0----|
|-0-0-0-0----0-0-|-0-0----0-0-0-0-|----0-0-0-0-0-0-|-0-0-0-0-0-0----|


 --------------------------------------------|
  E E E E Q  E E   E E Q  E E E E   Q  E E E E  Q
|----------------|----------------|-------------------|
|----------------|----------------|-------------------|
|----------------|----------------|-------------------|
|----------------|----------------|-------------------|
|-0-0-0-0----0-0-|-0-0----0-0-0-0-|----0-0-0-0-12\----|
|-0-0-0-0----0-0-|-0-0----0-0-0-0-|----0-0-0-0-12\----|


    Q=120
    Gtrs I, II
    PM---------------------------|
    S S S S H    S S S S   S S S S H.     4x
||-----------------------|----------------||
||o----------------------|---------------o||
||-----------------------|----------------||
||-----------------------|----------------||
||o-0-0-0-0------0-0-0-0-|-0-0-0-0-------o||
||--0-0-0-0------0-0-0-0-|-0-0-0-0--------||


    PM-------------------------------|
    S S S S +H     S S S S   S S S S +H.
||-------------------------|-----------------||
||o------------------------|----------------o||
||-------------------------|-----------------||
||-------------------------|-----------------||
||o-0-0-0-0-(0)----0-0-0-0-|-0-0-0-0-(0)----o||
||--0-0-0-0-(0)----0-0-0-0-|-0-0-0-0-(0)-----||


    Gtr I
    W           W           W              Q  E   Q  E   Q
||-----------|-----------|--------------|---------------------||
||o----------|-10--------|--------------|--------------------o||
||-----------|-----------|-10-----------|-10--x--10--x--10----||
||--8--------|-----------|--------------|---------------------||
||o-8--------|-----------|--------------|--------------------o||
||--8--------|-----------|--------------|---------------------||
|
|   Gtr II
|   W           W           Q  Q  Q  Q     Q  Q   Q  Q
||-----------|-----------|--------------|---------------------||
||o----------|-----------|--------------|--------------------o||
||-----------|-----------|--------------|---------------------||
||--8--------|--5--------|--0-----------|---------------------||
||o-8--------|--5--------|--0--0--5-----|--0--5---0--5-------o||
||--8--------|--5--------|--0--------0--|---------------------||


    Q=150
    Gtrs I, II
      PM|   PM|   PM|   PM|     PM|   PM|   PM|   PM|
    E S S E S S E S S E S S   E S S E S S E S S E S S
||--------------------------|-------------------------|
||o-------------------------|-------------------------|
||--------------------------|-------------------------|
||--8-----8-----8-----8-----|-5-----5-----5-----5-----|
||o-8-8-8-8-8-8-8-8-8-8-8-8-|-5-5-5-5-5-5-5-5-5-5-5-5-|
||--8-8-8-8-8-8-8-8-8-8-8-8-|-5-5-5-5-5-5-5-5-5-5-5-5-|


    PM|   PM|   PM|   PM|     PM|   PM|   PM|   PM|
  E S S E S S E S S E S S   E S S E S S E S S E S S
|-------------------------|-----------------------------||
|-------------------------|----------------------------o||
|-------------------------|-----------------------------||
|-0-----0-----0-----0-----|-0-----0-----0-----0---------||
|-0-0-0-0-0-0-0-0-0-0-0-0-|-0-0-0-0-0-0-0-0-0-0-0-0----o||
|-0-0-0-0-0-0-0-0-0-0-0-0-|-0-0-0-0-0-0-0-0-0-0-0-0-----||


  Gtr I
         PM|         PM|         PM|         PM|           PM|         PM|         PM|         PM|
   E     S  S  E     S  S  E     S  S  E     S  S    E     S  S  E     S  S  E     S  S  E     S  S
|-------------------------------------------------|-------------------------------------------------|
|-------------------------------------------------|-------------------------------------------------|
|-------------------------------------------------|-------------------------------------------------|
|--8-----------8-----------8-----------8----------|--5-----------5-----------5-----------5----------|
|--8-----8--8--8-----8--8--8-----8--8--8-----8--8-|--5-----5--5--5-----5--5--5-----5--5--5-----5--5-|
|--8-----8--8--8-----8--8--8-----8--8--8-----8--8-|--5-----5--5--5-----5--5--5-----5--5--5-----5--5-|
|
| Gtr II
|  S  S  S  S  S  S  S  S  S  S  S  S  S  S  S  S    S  S  S  S  S  S  S  S  S  S  S  S  S  S  S  S
|-------------------------------------------------|-------------------------------------------------|
|-18-15h18p15h18p15h18p15h18p15h18p15h18p15h18p15S|=17h20p17h20p17h20p17h20p17h20p17h20p17h20p17-20S|
|-------------------------------------------------|-------------------------------------------------|
|-------------------------------------------------|-------------------------------------------------|
|-------------------------------------------------|-------------------------------------------------|
|-------------------------------------------------|-------------------------------------------------|


         PM|         PM|         PM|         PM|        PM|      PM|     PM|     PM|
   E     S  S  E     S  S  E     S  S  E     S  S    E  S  S  E  S S  E  S S  E  S S
|-------------------------------------------------|------------------------------------|
|-------------------------------------------------|------------------------------------|
|-------------------------------------------------|------------------------------------|
|--0-----------0-----------0-----------0----------|--0--------0-------0-------0--------|
|--0-----0--0--0-----0--0--0-----0--0--0-----0--0-|--0--0--0--0--0-0--0--0-0--0--0-0---|
|--0-----0--0--0-----0--0--0-----0--0--0-----0--0-|--0--0--0--0--0-0--0--0-0--0--0-0---|
|
|  S  S  S  S  S  S  S  S  S  S  S  S  S  S  S  S    E.    E.    E    E  E    E  E
|-------------------------------------------------|-18----17---------------------------|
|-22-18h22p18h22p18h22p18h22p18h22p18h22p18h22p18-|-------------20---18-17---15--------|
|-------------------------------------------------|-----------------------------17-----|
|-------------------------------------------------|------------------------------------|
|-------------------------------------------------|------------------------------------|
|-------------------------------------------------|------------------------------------|


        PM|       PM|      PM|    PM|           PM|        PM|        PM|     PM|
   E    S S  E    S  S  E  S S E  S S     E     S S  E     S S  E     S S  E  S S
|-------------------------------------|-------------------------------------------|
|-------------------------------------|-------------------------------------------|
|-------------------------------------|-------------------------------------------|
|--8---------8----------8------8------|---5----------5----------5----------5------|
|--8----8-8--8----8--8--8--8-8-8--8-8-|---5-----5-5--5-----5-5--5-----5-5--5--5-5-|
|--8----8-8--8----8--8--8--8-8-8--8-8-|---5-----5-5--5-----5-5--5-----5-5--5--5-5-|
|
|  Q         S  E    E.    Q      E      +Q          S  S  E    S  S  E    E  E
|-------------------------------------|-------------------------------------------|
|-17b18r====17p15---15----------------|-------------------------------------------|
|-------------------------14-----15---|-(15)b17r====14h15p14---12h14p12-----------|
|-------------------------------------|-----------------------------------15-11---|
|-------------------------------------|-------------------------------------------|
|-------------------------------------|-------------------------------------------|


      PM|    PM|    PM|    PM|         PM-|       PM|   PM|   PM|
   E  S S E  S S E  S S E  S S     E   S  S   E   S S E S S E S S
|------------------------------|----------------------------------|
|------------------------------|----------------------------------|
|------------------------------|----------------------------------|
|--0------0------0------0------|---0----------0-------0-----0-----|
|--0--0-0-0--0-0-0--0-0-0--0-0-|---0---0--0---0---0-0-0-0-0-0-0-0-|
|--0--0-0-0--0-0-0--0-0-0--0-0-|---0---0--0---0---0-0-0-0-0-0-0-0-|
|
|  Q.        Q      Q      E      +E   E      H.
|------------------------------|----------------------------------|
|------------------------------|----------------------------------|
|------------------------------|------------[10]\-----------------|
|-12---------------12-----10---|-(10)-[7]-------------------------|
|-----------12-----------------|----------------------------------|
|------------------------------|----------------------------------|


    Q=120
    Gtr I
    W           W           W              Q  E   Q  E   Q
||-----------|-----------|--------------|-------------------||
||o----------|-10--------|--------------|------------------o||
||-----------|-----------|-10-----------|-10--x--10--x--10--||
||--8--------|-----------|--------------|-------------------||
||o-8--------|-----------|--------------|------------------o||
||--8--------|-----------|--------------|-------------------||
|
|   Gtr II
|   W           W           Q  Q  Q  Q     Q  Q   Q  Q
||-----------|-----------|--------------|-------------------||
||o----------|-----------|--------------|------------------o||
||-----------|-----------|--------------|-------------------||
||--8--------|--5--------|--0-----------|-------------------||
||o-8--------|--5--------|--0--0--5-----|--0--5---0--5-----o||
||--8--------|--5--------|--0--------0--|-------------------||


    Q=140
     E  E  E  H     +E    E E E H    +E
||----------------------|----------------|
||o-10----10------------|-8---8----------|
||-----10----10----(10)-|---9---9----(9)-|
||----------------------|----------------|
||o---------------------|----------------|
||----------------------|----------------|


  E E E H    +E     E  E E  E  E  E Q  5x
|-------0----(0)-|---------------------||
|-6---6----------|-11---------10------o||
|---7------------|----10-9-------10-9--||
|----------------|---------11----------||
|----------------|--------------------o||
|----------------|---------------------||


   E  E  E  H     +E    E E E H    +E
|---------------------|----------------|
|-10----10------------|-8---8----------|
|----10----10----(10)-|---9---9----(9)-|
|---------------------|----------------|
|---------------------|----------------|
|---------------------|----------------|


                   Q=90
  E E E H    +E     E  E E  E  E  E Q    Q   H  +Q
|-------0----(0)-|--------------------|-----12-(12)-*|
|-6---6----------|-11---------10------|-----12-(12)-*|
|---7------------|----10-9-------10-9-|------9--(9)-*|
|----------------|---------11---------|-11----------*|
|----------------|--------------------|-------------*|
|----------------|--------------------|-------------*|


Duration Legend
---------------
W - whole; H - half; Q - quarter; E - 8th; S - 16th; T - 32nd; X - 64th; a - acciaccatura
+ - note tied to previous; . - note dotted; .. - note double dotted
Uncapitalized letters represent notes that are staccato (1/2 duration)
Irregular groupings are notated above the duration line
Duration letters will always appear directly above the note/fret number it represents the
duration for.  Duration letters with no fret number below them represent rests.  Multi-
bar rests are notated in the form Wxn, where n is the number of bars to rest for.  Low
melody durations appear below the staff

Tablature Legend
----------------
 h   - hammer-on
 p   - pull-off
 b   - bend
 pb  - pre-bend
 r   - bend release (if no number after the r, then release immediately)
 /\  - slide into or out of (from/to "nowhere")
 s   - legato slide
 S   - shift slide
  - natural harmonic
[n]  - artificial harmonic
n(n) - tapped harmonic
 ~   - vibrato
 tr  - trill
 T   - tap
 TP  - trem. picking
 PM  - palm muting
\n/  - tremolo bar dip; n = amount to dip
 \n  - tremolo bar down
 n/  - tremolo bar up
/n\  - tremolo bar inverted dip
 =   - hold bend; also acts as connecting device for hammers/pulls
 <>  - volume swell (louder/softer)
 x   - on rhythm slash represents muted slash
 o   - on rhythm slash represents single note slash

Misc Legend
-----------
 |  - bar
||  - double bar
||o - repeat start
o|| - repeat end
*|  - double bar (ending)
 :  - bar (freetime)
 $  - Segno
 &  - Coda
Tempo markers -  = BPM(8/16=s8/s16), where s8 = swing 8ths, s16 = swing 16ths





Comments


Popular Bleeding Through tabs & chords
Hemlock Society Bass Tabs
Line In The Sand 2 Bass Tabs
Love Lost In A Hail Of Gunfire 1 Bass Tabs
Turns Cold To The Touch Bass Tabs
For Love And Failing Tabs
Line In The Sand Tabs
Love In Slow Motion Tabs
Revenge I Seek Tabs
There Was A Flood Tabs
Tragedy Of Empty Streets Tabs


Song lyrics



↑ Back to top | Tablatures and chords are parodies/interpretations of the original songs. You may use it for private study, scholarship, research or language learning purposes only
© 2014 AZChords.com Contact us | Privacy policy | DMCA | Add/correct tabs | Request tabs | Top 50 tabs