» » »

Babyshambles, Killamangiro Tabs (ver.3)

Artists:  A B C D E F G H I J K L M N O P Q R S T U V W X Y Z # 

Killamangiro Tabs (ver.3)

Babyshambles Tabs
 Rating:
4/5 (4 votes)
Killamangiro lessons Tabs too difficult? Try these video lessons and learn fast
1
                
     Band: BABYSHAMBLES
     from Dennis Schulze

     Intro:
   e|---15--17-17-17-17--15-15--12-12--10-10---------------|
   B|---15--17-17-17-17--15-15--12-12--10-10---------------|
   G|------------------------------------------------------|
   D|------------------------------------------------------|
   A|------------------------------------------------------|
   E|------------------------------------------------------|

     G      B         C      D             G      B         C      D
     ohhhhh ohhh ohhh ohhhhh ohhh la la la ohhhhh ohhh ohhh ohhhhh ohhhhh

     Verse:

     Why would you pay see me in a cage why...some man call the stage

      Play the wohle part long
   e|--3-3-3-3-3---3-3-3-3-3---3-3-3-3-3---3-3-3-3-3-------|
   B|--3-3-3-3-3---5-5-5-5-5---3-3-3-3-3---5-5-5-5-5-------|
   G|--4-4-4-4-4---4-4-4-4-4---4-4-4-4-4---4-4-4-4-4-------|
   D|--5-5-5-5-5---5-5-5-5-5---5-5-5-5-5---5-5-5-5-5-------|
   A|--5-5-5-5-5---3-3-3-3-3---5-5-5-5-5---3-3-3-3-3-------|
   E|--3-3-3-3-3---3-3-3-3-3---3-3-3-3-3---3-3-3-3-3-------|

     Brige:

     Listen now I have gone you will know I was not the only one would died

   e|--3-----3-7-3-2-----2-7-2--10-10-8-8-10-8-8-8-10-888-10-888-11810888-9|
   B|----555---------444---------------------------------------------------|
   G|----------------------------------------------------------------------|
   D|----------------------------------------------------------------------|
   A|----------------------------------------------------------------------|
   E|----------------------------------------------------------------------|


    Chours:

 G        B            C               C
 What was wrong in the eys of the unwell and unwise today

 G                  B      C     D     G           B             C
 Kill a man for his giro today         Wasn,t very gay I dosen,t mind it was

  D                 G                    B        C         D
 money man any way killed a man for his giro today

   e|--3--3-3-3---33---1212--12--12-12-12-12--|
   B|--3--3-3-3---55---1212--12--12-12-12-12--|
   G|--4--4-4-4---44---1212--12--12-12-12-12--|> 2x
   D|--5--5-5-5---55--------------------------|
   A|--5--5-5-5---33--------------------------|
   E|--3--3-3-3---33--------------------------|

   e|---------------------------------------------------|
   B|---------------------------------------------------|
   G|--9---9-9-9-9-8-8-8---8-8----------------------8---|
   D|--------------------------10-10-10-10---8-10-8-----|
   A|---------------------------------------------------|
   E|---------------------------------------------------|

   play Chours

   e|----------------8-7-5-3      ----------|
   B|---------------------------------------|
   G|--5--4-2-0     ------------------------|
   D|---------------------------------------|
   A|---------------------------------------|
   E|---------------------------------------|


   play anything of e


   Solo:

   e|--17--17-19b------|
   B|------------------|
   G|------------------|
   D|------------------|
   A|------------------|
   E|------------------|
            
Submit corrections

comments powered by Disqus
↑ Back to top | Babyshambles Tabs for Killamangiro. Lyrics for acoustic guitar and electric guitar. 1 Tablatures and chords are parodies/interpretations of the original songs. You may use it for private study, scholarship, research or language learning purposes only