>
 >
Fuck Forever

Fuck Forever Guitar Tabs

Babyshambles - Fuck Forever chords, tabs, tablatures, lyrics

Guitar lessons | Add/correct | Request | Top 50 tabs Artists:  A B C D E F G H I J K L M N O P Q R S T U V W X Y Z 0-9

Fuck Forever Guitar Tabs – Babyshambles

CD, Sheet music, Poster

Do you like Fuck Forever? Share with your friends now
Bass TabsChordsTabsTabs v2Tabs v3Tabs v4Tabs v5Tabs v6Ukulele
----------------------------------------------------------------------------



Tuning:standard

Ok well the fucking amazing song Fuck Forever by the amazing Babyshambles has THE PROPER 
for it. I am only 13 and have been trying to tab this for ages. Please Please Rate and 
with your improvements and comments. Thankyou and enjoy.
Note: All the chords are representation of the chord and are only shown once but feel 
to play them as many times as necessary.

INTRO

e|---1---1---1---1---1---1---1---1------|
B|---3---3---3---3---3---3---3---3------|
G|---3---3---3---3---3---3---3---3------|
D|---3---3---3---3---3---3---3---3------|
A|---1---1---1---1---1---1---1---1------|
E|---x---x---x---x---x---x---x---x------|

e|---0---0---0---0---0---0---0---0----|
B|---2---2---2---2---2---2---2---2----|
G|---2---2---2---2---2---2---2---2----|
D|---2---2---2---2---2---2---2---2----|
A|---0---0---0---0---0---0---0---0----|
E|---x---x---x---x---x---x---x---x----|

e|---2---2---x--x---7---7---x--x---x--x---x--x---9---9---x--x----|
B|---3---3---x--x---8---8---x--x---7--7---x--x---10--10--x--x----|
G|---4---4---x--x---7---7---x--x---7--7---x--x---11--11--x--x----|   x 3
D|---4---4---x--x---9---9---x--x---7--7---x--x---11--11--x--x----|
A|---2---2---x--x---10--10--x--x---5--5---x--x---9---9---x--x----|
E|---x---x---x--x---x---x---x--x---x--x---x--x---x---x---x--x----|

(2nd Time the Drums Come in)

VERSE 1

            Its one and the same, its one and the same, oh...

e|---x---x------------------0--0--0-----------2---2---2--------2--2---------|
B|---7---7------------------3--3--3-----------3---3---3--------3--3---------|
G|---7---7------------------0--0--0-----------2---2---2--------2--2---------|
D|---7---7------------------2--2--2-----------4---4---4--------4--4---------|
A|---5---5------------------3--3--3-----------2---2---2--------2--2---------|
E|---x---x------------------x--x--x-----------x---x---x--------x--x---------|

1.            So what's the use between death and glory,
2.              I can't tell between death and glory,

e|-------3---3--------------3----3---3----------2---2---2---------------|
B|-------1---1--------------1----1---1----------1---1---1---------------|
G|-------2---2--------------2----2---2----------2---2---2---------------|
D|-------2---2--------------2----2---2----------2---2---2---------------|
A|-------0---0--------------0----0---0----------0---0---0---------------|
E|-------x---x--------------x----x---x----------x---x---x---------------|

1.                Happy Endings, no they never bore me.
2.                Happy Endings, they still don't bore me.

e|--------0--0---------------0---0--------------------------------------|
B|--------0--0---------------0---0--------------------------------------|
G|--------1--1---------------1---1--------------------------------------|
D|--------2--2---------------2---2--------------------------------------|
A|--------2--2---------------2---2--------------------------------------|
E|--------0--0---------------0---0--------------------------------------|

1.             But they, they have a way,
2.                    A way to make you pay.
3.                 And a way to make you toe the line

e|------------------3------------3----------------------2----------|
B|------------------1------------1----------------------3----------|  After '..line)
G|------------------2------------2----------------------4----------|  finish with
D|------------------2------------2----------------------4----------|  Bm
A|------------------0------------0----------------------2-- <<-----|
E|------------------x------------x----------------------x----------|

CHORUS 1

e|---------2--2-----33333----------------------------------------------|
B|---------3--3-----33333----------------------------------------------|
G|---------4--4-----44444----------------------------------------------|
D|---------4--4-----55555----------------------------------------------|
A|---------2--2-----55555----------------------------------------------|
E|---------x--x-----33333----------------------------------------------|

1.      No I severed my ties,
2.      Because I'm so clever.
3.      But clever ain't wise.
4.      And Fuck Forever,               (Do not play F#m (2nd chord))
5.      If you don't mind.
6.      Oh Fuck forever,

e|--x----------9----------2-----3---------------------------------|
B|--7----------10---------3-----3---------------------------------|
G|--7----------11---------4-----4---------------------------------|
D|--7----------11---------4-----5---------------------------------|
A|--5----------9----------2-----5---------------------------------|
E|--x----------x----------x-----3---------------------------------|

       If you don't mind, don't mind, I don't mind, I don't mind.

e|--x--9-------------2----------3--------------x-------------9----|
B|--7--10------------3----------3--------------7-------------10---|
G|--7--11------------4----------4--------------7-------------11---|
D|--7--11------------4----------5--------------7-------------11---|
A|--5--9-------------2----------5--------------5-------------9----|
E|--x--x-------------x----------3--------------x-------------x----|

1.            Oh what's the use between death and glory
2.              I can't tell between death and glory,

e|----3---3---3--------------3----3---3----------2---2---2---------------|
B|----1---1---1--------------1----1---1----------1---1---1---------------|
G|----2---2---2--------------2----2---2----------2---2---2---------------|
D|----2---2---2--------------2----2---2----------2---2---2---------------|
A|----0---0---0--------------0----0---0----------0---0---0---------------|
E|----x---x---x--------------x----x---x----------x---x---x---------------|

1.             New Labour,     and Tory,
2.             Purgatory and,  Happy families.

e|--------0--0---------------0---0--------------------------------------|
B|--------0--0---------------0---0--------------------------------------|
G|--------1--1---------------1---1--------------------------------------|
D|--------2--2---------------2---2--------------------------------------|
A|--------2--2---------------2---2--------------------------------------|
E|--------0--0---------------0---0--------------------------------------|

          They're one and the same, one and the same.

e|---x-------------------------0-----------------2-------2-----------|
B|---7-------------------------1-----------------3-------3-----------|
G|---7-------------------------0-----------------2-------2-----------|
D|---7-------------------------2-----------------4-------4-----------|
A|---5-------------------------3-----------------2-------2-----------|
E|---x-------------------------x-----------------x-------x-----------|

        No it's not the same, it's not supposed to be the same.

e|---x-------------------0---------------------------------2------2--|
B|---7-------------------1---------------------------------3------3--|
G|---7-------------------0---------------------------------2------2--|
D|---7-------------------2---------------------------------0------4--|
A|---5-------------------3---------------------------------x------2--|
E|---x-------------------0---------------------------------2------x--|

1.             You know about that way,
2.                   The way they make you pay,
3.                And the way they make you to the line.

e|------------------3------------3----------------------2----------|
B|------------------1------------1----------------------3----------|  After '..line)
G|------------------2------------2----------------------4----------|  finish with
D|------------------2------------2----------------------4----------|  Bm
A|------------------0------------0----------------------2-- <<-----|
E|------------------x------------x----------------------x----------|

CHORUS 2

e|---------2--2-----33333----------------------------------------------|
B|---------3--3-----33333----------------------------------------------|
G|---------4--4-----44444----------------------------------------------|
D|---------4--4-----55555----------------------------------------------|
A|---------2--2-----55555----------------------------------------------|
E|---------x--x-----33333----------------------------------------------|

1.      I severed my ties,
2.      Oh I'm so clever.
3. So clever but you're not very nice.
4.      So Fuck Forever                 (Do not play F#m (2nd Chord))
5.      If you don't mind.
6.      I'm stuck forever,

e|--x----------9----------2-----3---------------------------------|
B|--7----------10---------3-----3---------------------------------|
G|--7----------11---------4-----4---------------------------------|
D|--7----------11---------4-----5---------------------------------|
A|--5----------9----------2-----5---------------------------------|
E|--x----------x----------x-----3---------------------------------|

          In your mind, your mind,    your mind.

e|--x--9-------------2----------3--------------x-------------9----|
B|--7--10------------3----------3--------------7-------------10---|
G|--7--11------------4----------4--------------7-------------11---|
D|--7--11------------4----------5--------------7-------------11---|
A|--5--9-------------2----------5--------------5-------------9----|
E|--x--x-------------x----------3--------------x-------------x----|

VERSE 3

1.         But have you heard about the way,
2. To make you feel anxious and make you pay?

e|------9---------------------------------9-----------------|
B|------8---------------------------------8-----------------|
G|------9---------------------------------9-----------------|
D|------7---------------------------------7-----------------|
A|------x---------------------------------x-----------------|
E|------x---------------------------------x-----------------|

    And                         to make you toe the line, line

e|---9-------9----9----9----9--------9----------------(2)------|
B|---8-------8----8----8----8--------8----------------(3)------|
G|---9-------9----9----9----9--------9----------------(4)------|
D|---7-------7----7----7----7--------7----------------(4)------|
A|---x-------x----x----x----x--------x----------------(2)------|
E|---x-------x----x----x----x--------x----------------(x)------|

CHORUS 3

e|---------2--2-----33333----------------------------------------------|
B|---------3--3-----33333----------------------------------------------|
G|---------4--4-----44444----------------------------------------------|
D|---------4--4-----55555----------------------------------------------|
A|---------2--2-----55555----------------------------------------------|
E|---------x--x-----33333----------------------------------------------|

1.      I severed my ties,
2.      Oh well i'll never,
3.      Sever the ties.
4.      And Fuck forever,            (Don't play F#m (2nd chord))
5.      If you don't mind.
6.      See I'm stuck forever,

e|--x----------9----------2-----3---------------------------------|
B|--7----------10---------3-----3---------------------------------|
G|--7----------11---------4-----4---------------------------------|
D|--7----------11---------4-----5---------------------------------|
A|--5----------9----------2-----5---------------------------------|
E|--x----------x----------x-----3---------------------------------|

     I'm stuck in your mind, your mind, your mind, your mind.

e|--x--9-------------2----------3--------------x-------------9----|
B|--7--10------------3----------3--------------7-------------10---|
G|--7--11------------4----------4--------------7-------------11---|
D|--7--11------------4----------5--------------7-------------11---|
A|--5--9-------------2----------5--------------5-------------9----|
E|--x--x-------------x----------3--------------x-------------x----|

CODA

         They'll never play this on the radio.

e|--------2--------------------------------2-------------|
B|--------2--------------------------------2-------------|
G|--------3--------------------------------3-------------|
D|--------4--------------------------------4-------------|   x 2
A|--------4--------------------------------4-------------|
E|--------2--------------------------------2-------------|

OUTRO

e|---2---2---x--x---7---7---x--x---x--x---x--x---9---9---x--x----|
B|---3---3---x--x---8---8---x--x---7--7---x--x---10--10--x--x----|
G|---4---4---x--x---7---7---x--x---7--7---x--x---11--11--x--x----|
D|---4---4---x--x---9---9---x--x---7--7---x--x---11--11--x--x----|
A|---2---2---x--x---10--10--x--x---5--5---x--x---9---9---x--x----|
E|---x---x---x--x---x---x---x--x---x--x---x--x---x---x---x--x----|

Now put your feet up and relax.





Comments


Popular Babyshambles tabs & chords
Loyalty Song Bass Tabs
Ballad Of Grimaldi 1 Chords
There She Goes 1 Chords
Unbilotitled 2 Chords
You Talk Chords
You Talk 1 Chords
Black Boy Lane Tabs
8 Dead Boys Ukulele
Baddies Boogy Ukulele
Monkey Casino Ukulele


Song lyrics



↑ Back to top | Tablatures and chords are parodies/interpretations of the original songs. You may use it for private study, scholarship, research or language learning purposes only
© 2014 AZChords.com Contact us | Privacy policy | DMCA | Add/correct tabs | Request tabs | Top 50 tabs