>
 >
Killamangiro

Killamangiro Bass Tabs

Babyshambles - Killamangiro chords, tabs, tablatures, lyrics

Guitar lessons | Add/correct | Request | Top 50 tabs Artists:  A B C D E F G H I J K L M N O P Q R S T U V W X Y Z 0-9

Killamangiro Bass Tabs – Babyshambles

CD, Sheet music, Poster

Do you like Killamangiro? Share with your friends now
Bass TabsChordsChords v2TabsTabs v2Tabs v3Ukulele
Intro
G|--------------------------------------------------|
D|--------------------------------------------------|
A|--------------2--2--2--2--3--3--3--3--5--5--5--5--|
E|--3--3--3--3--------------------------------------|

G|--------------------------------------------------|
D|--------------------------------------------------|
A|--------------2--2-2--2-2-3--3-3--3-3-5--5-5--5-5-|
E|--3--3-3--3-3-------------------------------------|

Verse x2

G|----------|    |----------|    |----------|    |----------|
D|----------| x3 |----------| x1 |----------| x3 |----------| x1
A|----------|    |----------|    |----------|    |----------|
E|--2--3-3--|    |--2--3-33-|    |--2--3-3--|    |--2--3-33-|

G|----------|    |----------|    |----------|    |----------|
D|----------| x3 |----------| x1 |----------| x3 |----------| x1
A|----------|    |----------|    |----------|    |----------|
E|--7--8-8--|    |--7--8-88-|    |--7--8-8--|    |--7--8-88-|

PreChorus
G|------------------------------------------------------------------|
D|----------------------------------------1-1-----------------------|
A|--------2--3-3--4-4--3----------2--3-3-------3--------------------|
E|--0--0--------------------3--3------------------------------------|

G|------------------------------------------------------------------|
D|--------------------------1--1------------------------------------|
A|--3--3--3--3--3--3--3--3--------------------0--0------------------|
E|--------------------------------1--1--3--3------------------------|

Chorus x2
G|--------------------------------------------------|
D|--------------------------------------------------|
A|--------------2--2--2--2--3--3--3--3--5--5--5--5--|
E|--3--3--3--3--------------------------------------|

G|--------------------------------------------------|
D|--------------------------------------------------|
A|--------------2--2-2--2-2-3--3-3--3-3-5--5-5--5-5-|
E|--3--3-3--3-3-------------------------------------|

Verse x3
Chorus x1
Verse x6
PreChorus x1
Chorus x1

Outro
G|--------------------------------------------------|
D|--------------------------------------------------|
A|--------------2--2--2--2--3--3--3--3--5--5--5--5--|
E|--3--3--3--3--------------------------------------|

G|--------------------------------------------------|
D|--------------------------------------------------|
A|--------------2--2-2--2-2-3--3-3--3-3-5---5-3-2---|
E|--3--3-3--3-3-----------------------------------3-|





Comments


Popular Babyshambles tabs & chords
Beg, Steal Or Borrow 1 Chords
Delivery 1 Chords
French Dog Blues Chords
Hired Gun Chords
Man Who Came To Stay Chords
Fuck Forever 2 Tabs
Baddies Boogie Ukulele
In Love With A Feeling Ukulele
Killamangiro Ukulele
Un Stookie Titled Ukulele


Song lyrics



↑ Back to top | Tablatures and chords are parodies/interpretations of the original songs. You may use it for private study, scholarship, research or language learning purposes only
© 2014 AZChords.com Contact us | Privacy policy | DMCA | Add/correct tabs | Request tabs | Top 50 tabs