>
 >
Killamangiro 1

Killamangiro 1 Guitar Tabs

Babyshambles - Killamangiro 1 chords, tabs, tablatures, lyrics

Guitar lessons | Add/correct | Request | Top 50 tabs Artists:  A B C D E F G H I J K L M N O P Q R S T U V W X Y Z 0-9

Killamangiro 1 Guitar Tabs – Babyshambles

CD, Sheet music, Poster

Do you like Killamangiro 1? Share with your friends now
Bass TabsChordsChords v2TabsTabs v2Tabs v3Ukulele
Tuning: Standard- E A D G B E 

Intro (After drum beat)

E|-15/17-17-17-17/15-15-15-15/12-12-12-12/10-10/-|
B|-15/17-17-17-17/15-15-15-15/12-12-12-12/10-10/-|
G|-----------------------------------------------|
D|-----------------------------------------------|
A|-----------------------------------------------|
E|-----------------------------------------------|

E|---------0---------0---------0---------0-|
B|-3-3-3-3-0-4-4-4-4-0-5-5-5-5-0-7-7-777-0-|
G|-4-4-4-4-0-4-4-4-4-0-5-5-5-5-0-7-7-777-0-|
D|-5-5-5-5-0-4-4-4-4-0-5-5-5-5-0-7-7-777-0-|
A|-5-5-5-5-0-2-2-2-2-0-3-3-3-3-0-5-5-555-0-|
E|-3-3-3-3-0---------0---------0---------0-|

E|-3--3-3-3-3-0-2--2-2-2-2-0-0--0-0-0-0-0-2--2-2-2-2-0-|
B|-3--3-3-3-3-0-0--0-0-0-0-0-3--3-3-3-3-0-3--3-3-3-3-0-|
G|-0--0-0-0-0-0-2--2-2-2-2-0-0--0-0-0-0-0-2--2-2-2-2-0-|
D|-0--0-0-0-0-0-1--1-1-1-1-0-2--2-2-2-2-0-0--0-0-0-0-0-|
A|-2--2-2-2-2-0-2--2-2-2-2-0-3--3-3-3-3-0------------0-|
E|-3--3-3-3-3-0------------0------------0------------0-|

Verse 1

E||-3~------3-3-3-3-3~--------0~-----0-0-0~------0-0--0---0-0-|
B||-3~------3-3-3-3-3~------0-3~-----3-3-3~------3-3--3---0-0-|
G||-0~------0-0-0-0-0~------0-0~-----0-0-0~------0-0--0---0-0-| x2
D||-0~------0-0-0-0-0~------0-2~-----2-2-2~------2-2--2---0-0-|
A||-2~------2-2-2-2-2~------0-3~-----3-3-3~------3-3--3---0-0-|
E||-3~------3-3-3-3-3~------------------------------------0-0-|

Pre-Chorus

E|-----------------------------------------------------|
B|-8-------8---8--------8-----------------------8--8---|
G|---9------9-----9-------8------/14--12--11----9--9---|
D|-----9-----9------9-------9--------------------------|
A|-----------------------------------------------------|
E|-----------------------------------------------------|

E|----------------------------------------------------------|
B|-15---13--12--------15/13-13-13-15/13-13-13---16--15--13--|
G|----------------------------------------------------------|
D|----------------------------------------------------------|
A|----------------------------------------------------------|
E|----------------------------------------------------------|

Chorus x2

E|---------0---------0---------0---------0-|
B|-3-3-3-3-0-4-4-4-4-0-5-5-5-5-0-7-7-777-0-|
G|-4-4-4-4-0-4-4-4-4-0-5-5-5-5-0-7-7-777-0-|
D|-5-5-5-5-0-4-4-4-4-0-5-5-5-5-0-7-7-777-0-|
A|-5-5-5-5-0-2-2-2-2-0-3-3-3-3-0-5-5-555-0-|
E|-3-3-3-3-0---------0---------0---------0-|

E|-3--3-3-3-3-0-2--2-2-2-2-0-0--0-0-0-0-0-2--2-2-2-2-0-|
B|-3--3-3-3-3-0-0--0-0-0-0-0-3--3-3-3-3-0-3--3-3-3-3-0-|
G|-0--0-0-0-0-0-2--2-2-2-2-0-0--0-0-0-0-0-2--2-2-2-2-0-|
D|-0--0-0-0-0-0-1--1-1-1-1-0-2--2-2-2-2-0-0--0-0-0-0-0-|
A|-2--2-2-2-2-0-2--2-2-2-2-0-3--3-3-3-3-0------------0-|
E|-3--3-3-3-3-0------------0------------0------------0-|

Verse 2 (Heavy Distortion) 

E|-3-3----------------------------3-3-3---3------------|
B|-3-3----------------------------3-3--3---3-----------|
G|-4-4------------x/\/-----x/\----4-4---4---4----x/\/--|
D|-5-5------------x/\/-----x/\----5-5------------x/\/--| Played a few 
A|-5-5----------------------------5-5------------------| times
E|-----------------------------------------------------|

Pre-Chorus

E|-----------------------------------------------------|
B|-8-------8---8--------8-----------------------8--8---|
G|---9------9-----9-------8------/14--12--11----9--9---|
D|-----9-----9------9-------9--------------------------|
A|-----------------------------------------------------|
E|-----------------------------------------------------|

E|----------------------------------------------------------|
B|-15---13--12--------15/13-13-13-15/13-13-13---16--15--13--|
G|----------------------------------------------------------|
D|----------------------------------------------------------|
A|----------------------------------------------------------|
E|----------------------------------------------------------|

Chorus 2

E|---------0---------0---------0---------0-|
B|-3-3-3-3-0-4-4-4-4-0-5-5-5-5-0-7-7-777-0-|
G|-4-4-4-4-0-4-4-4-4-0-5-5-5-5-0-7-7-777-0-|
D|-5-5-5-5-0-4-4-4-4-0-5-5-5-5-0-7-7-777-0-|
A|-5-5-5-5-0-2-2-2-2-0-3-3-3-3-0-5-5-555-0-|
E|-3-3-3-3-0---------0---------0---------0-|

E|-3--3-3-3-3-0-2--2-2-2-2-0-0--0-0-0-0-0-2--2-2-2-2-0-|
B|-3--3-3-3-3-0-0--0-0-0-0-0-3--3-3-3-3-0-3--3-3-3-3-0-|
G|-0--0-0-0-0-0-2--2-2-2-2-0-0--0-0-0-0-0-2--2-2-2-2-0-|
D|-0--0-0-0-0-0-1--1-1-1-1-0-2--2-2-2-2-0-0--0-0-0-0-0-|
A|-2--2-2-2-2-0-2--2-2-2-2-0-3--3-3-3-3-0------------0-|
E|-3--3-3-3-3-0------------0------------0------------0-|



E|-3~------------------------------------|
B|-3~------------------------------------|
G|-4~-----5-4-2-0~~--------17-16-14-12~~-|
D|-5~------------------------------------| Repeat
A|-5~------------------------------------|
E|-3~------------------------------------|

I haven't yet figured out the solo but when I do I shall tab it.
Please rate, comment and if necessary correct. Thanks.

Enjoy.





Comments


Popular Babyshambles tabs & chords
Albion 1 Chords
Back From The Dead 1 Chords
French Dog Blues 1 Chords
Man Who Came To Stay 1 Chords
Whole World Is Our Playground Chords
French Dog Blues Intro Tabs
In Love With A Feeling 1 Tabs
Unstokkie Tabs
Back From The Dead Ukulele
Dirty Fame Ukulele


Song lyrics



↑ Back to top | Tablatures and chords are parodies/interpretations of the original songs. You may use it for private study, scholarship, research or language learning purposes only
© 2014 AZChords.com Contact us | Privacy policy | DMCA | Add/correct tabs | Request tabs | Top 50 tabs