>
 >
Killamangiro

Killamangiro Guitar Tabs

Babyshambles - Killamangiro chords, tabs, tablatures, lyrics

Guitar lessons | Add/correct | Request | Top 50 tabs Artists:  A B C D E F G H I J K L M N O P Q R S T U V W X Y Z 0-9

Killamangiro Guitar Tabs – Babyshambles

CD, Sheet music, Poster

Do you like Killamangiro? Share with your friends now
Bass TabsChordsChords v2TabsTabs v2Tabs v3Ukulele
This is hopefully a slight improvement from the previous tab

Tuning: standard EADGBe


Intro: not quite correct but

e|--/--17--15--12--12-----------------------------------|
B|--/--17--15--13--12-----------------------------------|
G|------------------------------------------------------|
D|------------------------------------------------------|
A|------------------------------------------------------|
E|------------------------------------------------------|

G/B/C/D

Verse:

G/G7/Cmaj7


'Listen now  I have gone....'

Em/B/C/D


For nothing better to call it, Bridge:

    Em    ?  Cadd9 Cmin       G      B      C      D
e|--x-----x----0----3---------3------7------8------10----------------------------------------|
B|--0-----0----3----4---------3------7------8------10----------------------------------------|
G|--0-----0----0----5---------4------8------9------11----------------------------------------|
D|--5-----5----2----5---------5------9------10-----12----------------------------------------|
A|--7-----6----3----3---------5------9------10-----12----------------------------------------|
E|--x-----x----x----x---------3------7------8------10----------------------------------------|


Solo:


e|---/17-19--17-19b20-17-19------------------------|
B|-------------------------------------------------| Repeat with slight 
G|-------------------------------------------------| variation
D|-------------------------------------------------|
A|-------------------------------------------------|
E|-------------------------------------------------|



Ohhh ohhh ohhhh
Why would you pay to see me in a cage?
And why would you pay to see me in a cage?
Some men call the stage 

Listen now I have gone
You will know
I was the only one that would have died
What was wrong in the eyes of the unwell and unwise 

And I killed a man for his giro today
Wasn't very gay, I didn't mind
I was a money man anyway
Killed a man for his giro today 

Why, would you pay
Why, would you pay
To see me in a cage
It's all across the stage 

And know
When the night has come
You might say
I was not the only the one who would've died
What was wrong in the eyes of the cruel and unwise
And I killed a man for his giro today 

On the off chance that you miss me
To the radio
I thought you might like to know you broke my heart
Can only sadden up or hedge your bets
Or take a chance and never get you again
All my ties, time and time
I keep on trying hard not to try too hard
When I forgive, I won't forget
To killing time, so I'm better now
I don't need it...
Anything that makes you, feel hate
Can do without hate
Now I believe in love 

Now I have gone
Oh yeah, I will pay
For everything you've done
What was wrong
In the eyes of the unwell and unwise
And I killed a man for his giro today 

Ohhh ohhh ohhhh 


Recently on TOTP Peter altered the lyrics to something like:

'Oh You're a dog and you've had your day
 So its time to get out the way
 go for a smile and your life and child
 If you give it in hand it'll raise a smile'

Hope that helps!





Comments


Popular Babyshambles tabs & chords
Black Boy Lane Bass Tabs
Blinding Chords
East Of Eden Chords
Lost Art Of Murder Chords
New Love Grows On Trees Chords
Beg, Steal Or Borrow 1 Tabs
Crumb Begging Bahead Intro Tabs
Babyshambles Ukulele
In Love With A Feeling Ukulele
Up The Morning Ukulele


Song lyrics



↑ Back to top | Tablatures and chords are parodies/interpretations of the original songs. You may use it for private study, scholarship, research or language learning purposes only
© 2014 AZChords.com Contact us | Privacy policy | DMCA | Add/correct tabs | Request tabs | Top 50 tabs