» » »

Attack Attack, Sexual Man Chocolate Tabs (ver.3)

Artists:  A B C D E F G H I J K L M N O P Q R S T U V W X Y Z # 

Sexual Man Chocolate Tabs (ver.3)

Attack Attack Tabs
 Rating:
4/5 (4 votes)
Sexual Man Chocolate lessons Tabs too difficult? Try these video lessons and learn fast
1
                Sexual Man Chocolate by Attack Attack!

Most people have been tabbing this wrong
The song is tuned in Dropped B Flat
I found this out because at the outro of the song
They play a B flat power chord in the 2nd measure in the outro

But they play most of the song in B 

Tuning: Dropped B Flat (A# F A# D# G C)


0:15 - 0:30
      S S S S E  Q    E  E  S S    E  E  E  S E  S E  S S E   4x
C ||----------------------------|-----------------------------||
G ||----------------------------|-----------------------------||
D#||----------------------------|----------------------------*||
A#||----------------------------|----------------------------*||
F ||--1-1-1-1-1--1----1--1--1-1-|-----1--1--1-1--1-1--1-1-1---||
A#||--1-1-1-1-1--1----1--1--1-1-|-----1--1--1-1--1-1--1-1-1---||



0:30 - 0:46 (Upstroke on the single note to get that chunky noise)
   S  S  S  S  E  S S S S S S S S S  S    S S S S S S S  S S E  S S S S S  4x          
---------------------------------------|-----------------------------------||
---------------------------------------|-----------------------------------||
*--------------------------------------|----------------------------------*||
*--------------------------------------|----------------------------------*||
---1--1--1--1--1------------------1----|--------------1---------1-1-1---1--||
---1--1--1--1--1--1-----1-----1---1--1-|--1-----1-----1------1--1-1-1---1--||



0:50 : 1:19
    W                   W                   W                   W                   
|--------------------|-------------------|-------------------|--------------------||
|--------------------|-------------------|-------------------|--------------------||
|*-------------------|-------------------|-------------------|-------------------*||
|*-------------------|--3----------------|-------------------|-------------------*||
|---1----------------|--1----------------|--4----------------|--3-----------------||
|---1----------------|-------------------|--4----------------|--3-----------------||


1:24 - 1:39

   E  S S S S E  S S S S E  E     E  S S S S E  S S S S E  E   
|------------------------------|------------------------------|
|------------------------------|------------------------------|
|------------------------------|------------------------------|
|--8----------8----------8-----|--4----------4----------4-----|
|--6--6-6-6-6-6--6-6-6-6-6--1--|--2--2-2-2-2-2--2-2-2-2-2--2--|
|------------------------------|------------------------------|


  E  S S S S E  S S S S E  E     E  S S S S E  S S S S E  E     E  S S S S E  S S S S E  E   
------------------------------|------------------------------|------------------------------|
------------------------------|------------------------------|------------------------------|
------------------------------|------------------------------|------------------------------|
--6----------6----------6-----|--6----------6----------6-----|--8----------8----------8-----|
--4--4-4-4-4-4--4-4-4-4-4--4--|--6----------6----------6-----|--6--6-6-6-6-6--6-6-6-6-6--1--|
------------------------------|--6--6-6-6-6-6--6-6-6-6-6--6--|------------------------------|


  E  S S S S E  S S S S E  E     Q     Q     E   S S E  S S    Q     Q     E   S S E  S S  
------------------------------|-----------------------------|-----------------------------|
------------------------------|-----------------------------|-----------------------------|
------------------------------|-----------------------------|-----------------------------|
--4----------4----------4-----|-----------------------------|-----------------------------|
--2--2-2-2-2-2--2-2-2-2-2--2--|--4b----4b----4b-------------|--6b----6b----6b-------------|
------------------------------|------------------1-1-1--1-1-|------------------1-1-1--1-1-|


1:40 - 2:10
  W                   W                
-------------------|-------------------|
-------------------|-------------------|
-------------------|-------------------|
--1----------------|--1----------------|
--1----------------|--1----------------|
--1----------------|--1----------------|


                                4x      
--------------------------------||
--------------------------------||
-------------------------------*|| (Figure out the timing on this part)
-------------------------------*||
--4--------------1--1-1--1-1-1--||
-----3--1--3--1--1--1-1--1-1-1--||

2:10 - 2:25              
||-------------------||
||-------------------||
||--15--11--13--8---*||
||------------------*||
||--13--9---11--6----||
||-------------------||



2:25 - 2:56 (Twice)

   E  S S S S E  S S S S E  E     E  S S S S E  S S S S E  E   
|------------------------------|------------------------------|
|------------------------------|------------------------------|
|------------------------------|------------------------------|
|--8----------8----------8-----|--4----------4----------4-----|
|--6--6-6-6-6-6--6-6-6-6-6--1--|--2--2-2-2-2-2--2-2-2-2-2--2--|
|------------------------------|------------------------------|


  E  S S S S E  S S S S E  E     E  S S S S E  S S S S E  E     E  S S S S E  S S S S E  E   
------------------------------|------------------------------|------------------------------|
------------------------------|------------------------------|------------------------------|
------------------------------|------------------------------|------------------------------|
--6----------6----------6-----|--6----------6----------6-----|--8----------8----------8-----|
--4--4-4-4-4-4--4-4-4-4-4--4--|--6----------6----------6-----|--6--6-6-6-6-6--6-6-6-6-6--1--|
------------------------------|--6--6-6-6-6-6--6-6-6-6-6--6--|------------------------------|


  E  S S S S E  S S S S E  E     Q     Q     E   S S E  S S    Q     Q     E   S S E  S S  
------------------------------|-----------------------------|-----------------------------|
------------------------------|-----------------------------|-----------------------------|
------------------------------|-----------------------------|-----------------------------|
--4----------4----------4-----|-----------------------------|-----------------------------|
--2--2-2-2-2-2--2-2-2-2-2--2--|--4b----4b----4b-------------|--6b----6b----6b-------------|
------------------------------|------------------1-1-1--1-1-|------------------1-1-1--1-1-|

2:56 - End (Upstroke on the single note to get that chunky noise)

   S S S S E  Q    E  E  S S    E  E  E  S E  S E  S S E   
|----------------------------|-----------------------------|
|----------------------------|-----------------------------|
|----------------------------|-----------------------------|
|----------------------------|-----------------------------|
|--1-1-1-1-1--1----1--1--1---|-----1--1--1----1-1--1-1-1---|
|--1-1-1-1-1--1----1--1--1-1-|-----1--1--1-1--1-1--1-1-1---|


   S S S S E  Q    E  E  S S    E  E  E  S E  S E  S S E   
|----------------------------|-----------------------------||
|----------------------------|-----------------------------||
|----------------------------|----------------------------*||
|----------------------------|----------------------------*||
|--0-0-0-0-0--0----0--0--0---|-----0--0--0----0-0--0-0-0---||
|--0-0-0-0-0--0----0--0--0-0-|-----0--0--0-0--0-0--0-0-0---||



Duration Legend
---------------
W - whole
H - half
Q - quarter
E - 8th
S - 16th
T - 32nd
X - 64th
. - note dotted
|-n-|  - n-tuplets


Tablature Legend
----------------
L - tied note
x - dead note
g - grace note
(n) - ghost note
> - accentuded note
NH - natural harmonic
AH - artificial harmonic
TH - tapped harmonic
SH - semi harmonic
PH - pitch harmonic
h - hammer on
p - pull off
b - bend
br - bendRelease
pb - preBend
pbr - preBendRelease
brb - bendReleaseBend
\n/ - tremolo bar dip
\n - tremolo bar dive
-/n - tremolo bar Release up
/n\ - tremolo bar inverted dip
/n - tremolo bar return
-\n - tremolo bar Release down
S - shift slide
s - legato slide
/ -  slide into from below or out of upwards
\ -  slide into from above or out of downwards
~ - vibrato
W - wide vibrato
tr - trill
TP - tremolo picking
T - tapping
S - slap
P - pop
< - fade in
^ - brush up
v - brush down
            
Submit corrections

comments powered by Disqus
↑ Back to top | Attack Attack Tabs for Sexual Man Chocolate. Lyrics for acoustic guitar and electric guitar. 1 Tablatures and chords are parodies/interpretations of the original songs. You may use it for private study, scholarship, research or language learning purposes only