>
 >
Stick Stickly

Stick Stickly Guitar Tabs

Attack Attack - Stick Stickly chords, tabs, tablatures, lyrics

Guitar lessons | Add/correct | Request | Top 50 tabs Artists:  A B C D E F G H I J K L M N O P Q R S T U V W X Y Z 0-9

Stick Stickly Guitar Tabs – Attack Attack

CD, Sheet music, Poster

Do you like Stick Stickly? Share with your friends now
Bass TabsBass Tabs v2Bass Tabs v3Drum TabsTabsTabs v2Tabs v3Tabs v4Tabs v5Tabs v6

Tunning: C# G# C# F# A# D# (Drop C# or Drop Db)

Make sure to check both lead and rhythm
in case something doesn’t sound right to you
Remember. There are two speakers and thus
Two different guitars that mix into one

UPDATE (11/13/09): I've been debating whether the breakdown 
chords are either

C#|------------------
G#|---1---------0----
C#|---2---------1----

Feel free to play whichever 
sounds better to you

LEAD

Intro (0:00 - 0:16)

|---------------------------------------------------------|
|-Fades-in------------------------------------------------|
|-----------[-Repeat-4-times-----------------]------------|
|----0----------------------------------------------------|    
|----0------000-000---0-00-------0-00--000-000------12\---|
|----0------000-000---0-00-------0-00--000-000------12\---|
            *** ***   * **       * **  *** ***

(0:16 – 0:30)

|---------------------------------------------------------------|
|---------------------------------------------------------------|  
|--tremolo-picking----------------------------------------------|
|---------------------------------------------------------------| 
|--8-------12--10--7--------------7h10-7h10-----------8h12-8h12-|
|-----------------------7h10-7h10-----------8h12-8h12-----------|


Pre-chorus (0:30 - 0:32)

|----------------------------------------------|
|----------------------------------------------|
|------------------------12-12-12-12-/-14--14--|
|--0----------------------X—-X—-X—-X----X---X--|
|--0---------------------10-10-10-10-/-12--12--|
|--0-------------------------------------------|

Chorus (0:33 – 0:53)

|---------------------------------------------------------------------------|
|---------------------------------------------------------------------------|
|--10--1010---101010---101010---101010-\-9-99--999-/-12-121212-/-14141414---|
|---X---X-X----X-X-X----X-X-X----X-X-X---X—XX--XXX----X--X-X-X----X-X-X-X---|
|---8—--8-8----8-8-8----8-8-8----8-8-8-\-7-77--777-/-10-101010-/-12121212---|
|---------------------------------------------------------------------------|

|----------------------------------------------------------------------|
|----------------------------------------------------------------------|
|--10--1010---101010---101010---101010-\-9-99--999-\-7-77-7777---------|
|---X---X-X----X-X-X----X-X-X----X-X-X---X—XX--XXX---X-XX-XXXX---x2----|
|---8—--8-8----8-8-8----8-8-8----8-8-8-\-7-77--777-\-5-55-5555---------|
|----------------------------------------------------------------------|


Pre-Verse (0:54 – 0:55)  
               
|-----------------------|  
|--6-------6-------6----|  
|--9-------9-------9b10-|  
|-------0------0--------|  
|-----0-0----0-0--------|  
|-----0-0----0-0--------|  
      *      *

Verse (0:56 – 1:06)

|------------------------------------------------------|
|--6-------6-------6-6-6-6----6-------6------6---------|
|--9-------9-------9-9-9-9----9-------9------9b10------|
|-------0------0------------------0-------0---------x2-|
|-----0-0----0-0----------------0-0-----0-0------------|
|-----0-0----0-0----------------0-0-----0-0------------|
      *      *                  *       *

Bridge (1:06 – 1:10)

|--------------------|
|--------------------|       
|--------------------|
|-10--------12-------|
|-8--x16----10—x16---|
|-8---------10-------|

Breakdown (1:11 – 1:38)(Repeat entire thing twice)

|-------------------------------------------------------------|
|-------------------------------------------------------------|
|-------------------------------------------------------------|
|-------------------------------------------------------------|
|-000--0--000--0----00000000----000----0----000---0---0000—3*-|
|-111--1--111--1----11111111----111----1----111---1---1111----|
  ***  *  ***  *    ********    ***    *    ***   *   ****

|------------------------------------------------------------|
|------------------------------------------------------------|
|------------------------------------------------------------|
|------------------------------------------------------------| 
|-000--000--000--000--00--8h12-8h12-8h12-8h12----------------|
|-000--000--000--000--00-------------------------------------|
  ***  ***  ***  ***  **

|------------------------------------------------------------|
|------------------------------------------------------------|
|---------------------------second-time-around---------------|
|---------------------------------do-not-slide---------------| 
|-000--000--000--000—-000--12\-------------------------------|
|-000--000--000--000--000—-12\-------------------------------|
  ***  ***  ***  ***  ***

Pre-Chorus (1:41 – 2:00)(Repeat twice, tempo is slightly slower)

|----------------------------------------|
|----------------------------------------|
|-10------9------12-----14-----12--------|
|--X—-x8--X—-x4---X—-x4--X—-x8--X—x8-----| 
|--8—-----7------10-----12-----10--------|
|----------------------------------------|

Chorus (2:01 – 2:20)

|---------------------------------------------------------------------------|
|---------------------------------------------------------------------------|
|--10--1010---101010---101010---101010-\-9-99--999-/-12-121212-/-14141414---|
|---X---X-X----X-X-X----X-X-X----X-X-X---X—XX--XXX----X--X-X-X----X-X-X-X---|
|---8—--8-8----8-8-8----8-8-8----8-8-8-\-7-77--777-/-10-101010-/-12121212---|
|---------------------------------------------------------------------------|

|----------------------------------------------------------------------|
|----------------------------------------------------------------------|
|--10--1010---101010---101010---101010-\-9-99--999-\-7-77-7777---------|
|---X---X-X----X-X-X----X-X-X----X-X-X---X—XX--XXX---X-XX-XXXX---x2----|
|---8—--8-8----8-8-8----8-8-8----8-8-8-\-7-77--777-\-5-55-5555---------|
|----------------------------------------------------------------------|

(2:23 – 2:35)
Repeat x3

|--------------------------------------|
|-------first-time-is-played-----------|
|---------in-a-faster-tempo------------|
|--------------------------------------|  
|-0000--000--00000--00000--0-----------|
|-0000--000--00000--00000--0-----------|
  ****  ***  *****  *****  *

(2:36 – 2:42)
The following is played twice

|----------------------------------------------------|
|----------------------------------------------------|
|----------------------------------------------------|
|----------------------------------------------------|
|-8h12-8h12---x4--7h10-7h10---x2---------------------| 
|----------------------------------------------------|

Techno-y part (2:50 – 3:03)
The following is played twice

|-----------------------------------------------|
|-----------------------------------------------|
|-----------------------------------------------|
|-0----0----0----0----8----8----8----8----3-----|
|-0--000--000--000—-008--888--888--888--883-----|
|-0--000--000--000—-008--888--888--888--883-----|
     **   **   **   **   **   **   **   **

|--------------------------------------------------------|
|--------------------------------------------------------|
|--------------------------------------------------------|
|----3----3----3----10------10------10------10-----------|  
|--333--333--333--3310--101010--101010--101010--1010-----|
|--333--333--333--3310--101010--101010--101010--1010-----|
   **   **   **   **     * *     * *     * *     * *

Outro (3:16-3:34)

|-------------------------------------------------|
|---------------------------------------6~--------|
|---------------------------------------9~--------|
|-Pick-slide----------------------------0---------|
|-------------000--0--000--0--00000000--0---------|
|-------------111--1--111--1--11111111--0---------|
              ***  *  ***  *  ********




RHYTHM

Intro (0:00 - 0:16)

|---------------------------------------------------------|
|-Fades-in------------------------------------------------|
|----V------[-Repeat-4-times-----------------]------------|
|----0----------------------------------------------------|    
|----0------000-000---0-00-------0-00--000-000------12\---|
|----0------000-000---0-00-------0-00--000-000------12\---|
            *** ***   * **       * **  *** ***

(0:16 – 0:30)
|----------------------------------------------------------|
|----------------------------------------------------------|  
|--tremolo-picking-----------------------------------------|
|----------------------------------------------------------| 
|--5-------8--7--4--------------4h7-4h7---------5h8-5h8----|
|-----------------------4h7-4h7---------5h8-5h8------------|

Pre-chorus (0:30 - 0:32)

|----------------------------------------------|
|----------------------------------------------|
|-------------------------9--9--9—-9--/-10-10--|
|--0----------------------x--x--x—-x-----x--x--|
|--0----------------------7--7--7—-7--/--8--8--|
|--0-------------------------------------------|

Chorus (0:33 – 0:53)

|----------------------------------------------------------------|
|----------------------------------------------------------------|
|----------------------------------------------------------------|
|---8--88--888-888-888-/-10-1010--101010-\-5-55-5555-------------|
|---8--88--888-888-888-/-10-1010--101010-\-5-55-5555---x4--------|
|---8--88--888-888-888-/-10-1010--101010-\-5-55-5555-------------|


Pre-Verse (0:54 – 0:55)
                                  
|-----------------------|  
|-----------------------|
|-----------------------|  
|-----------------------|  
|-----------------------|  
|-----------------------|  

Verse (0:56 – 1:06)

|------------------------------------------------------|
|--6-------6-------6-6-6-6----6-------6------6---------|
|--9-------9-------9-9-9-9----9-------9------9b10------|
|-------0------0------------------0-------0---------x2-|
|-----0-0----0-0----------------0-0-----0-0------------|
|-----0-0----0-0----------------0-0-----0-0------------|
      *      *                  *       *

Bridge (1:06 – 1:10)

|--------------------|
|--------------------|       
|--------------------|
|-10--------12-------|
|-8--x16----10—x16---|
|-8---------10-------|

Breakdown (1:11 – 1:38)(Repeat entire thing twice)

|-------------------------------------------------------------|
|-------------------------------------------------------------|
|-------------------------------------------------------------|
|-------------------------------------------------------------|
|-000--0--000--0----00000000----000----0----000---0---0000—3*-|
|-111--1--111--1----11111111----111----1----111---1---1111----|
  ***  *  ***  *    ********    ***    *    ***   *   ****

|------------------------------------------------------------|
|------------------------------------------------------------|
|------------------------------------------------------------|
|------------------------------------------------------------| 
|-000--000--000--000--00--5h8-5h8-5h8-5h8--------------------|
|-000--000--000--000--00-------------------------------------|
  ***  ***  ***  ***  **

Pre-Chorus(1:41 – 2:00)(Repeat twice, tempo is slightly slower

|-------------------------------------|  
|-------------------------------------|
|-------------------------------------|  
|--8-------10------0------10----------|  
|--8—-x12--10—-x4--0—-x8--10--x8------|  
|--8-------10------0------10----------|  

Chorus (2:01 – 2:20)

|----------------------------------------------------------------|
|----------------------------------------------------------------|
|----------------------------------------------------------------|
|---8--88--888-888-888-/-10-1010--101010-\-5-55-5555-------------|
|---8--88--888-888-888-/-10-1010--101010-\-5-55-5555---x4--------|
|---8--88--888-888-888-/-10-1010--101010-\-5-55-5555-------------|

(2:23 – 2:35)

Repeat x4

|--------------------------------------|
|-joins-guitar-1-after-the-first-one---|
|--------------------------------------|
|--------------------------------------|  
|-0000--000--00000--00000--0-----------|
|-0000--000--00000--00000--0-----------|
  ****  ***  *****  *****  *

|----------------------------------------------------|
|----------------------------------------------------|
|----------------------------------------------------|
|----------------------------------------------------|
|-5h8-5h8---x4--4h7-4h7---x2-------------------------| 
|----------------------------------------------------|

Techno-y part (2:50 – 3:03)
The following is played twice

|-----------------------------------------------|
|-----------------------------------------------|
|-----------------------------------------------|
|-0----0----0----0----8----8----8----8----3-----|
|-0--000--000--000—-008--888--888--888--883-----|
|-0--000--000--000—-008--888--888--888--883-----|
     **   **   **   **   **   **   **   **

|--------------------------------------------------------|
|--------------------------------------------------------|
|--------------------------------------------------------|
|----3----3----3----10------10------10------10-----------|  
|--333--333--333--3310--101010--101010--101010--1010-----|
|--333--333--333--3310--101010--101010--101010--1010-----|
   **   **   **   **     * *     * *     * *     * *

Outro (3:16-3:34)

|-------------------------------------------------|
|---------------------------------------6~--------|
|---------------------------------------9~--------|
|-Pick-slide----------------------------0---------|
|-------------000--0--000--0--00000000--0---------|
|-------------111--1--111--1--11111111--0---------|
              ***  *  ***  *  ********





Comments


Popular Attack Attack tabs & chords
Shred, White, And Blue Bass Tabs
Stick Stickly 3 Bass Tabs
Turbo Swag 3 Chords
Turbo Swag 4 Chords
A For Andrew Tabs
The Motivation Tabs
The Peoples Elbow 1 Tabs
The Wretched Intro 1 Tabs
You And Me 1 Tabs
I Swear Ill Change Ukulele


Song lyrics



↑ Back to top | Tablatures and chords are parodies/interpretations of the original songs. You may use it for private study, scholarship, research or language learning purposes only
© 2014 AZChords.com Contact us | Privacy policy | DMCA | Add/correct tabs | Request tabs | Top 50 tabs