» » »

Attack Attack, Sexual Man Chocolate Tabs (ver.2)

Artists:  A B C D E F G H I J K L M N O P Q R S T U V W X Y Z # 

Sexual Man Chocolate Tabs (ver.2)

Attack Attack Tabs
 Rating:
4/5 (4 votes)
Sexual Man Chocolate lessons Tabs too difficult? Try these video lessons and learn fast
                Album:Shazam!

Tuning: Drop-C (CGCFAD)

I know the tab isn't perfect, but I think it's better than version 1. Here's my 
of Sexual Man Chocolate:

Intro (Play 4x)(0:00-0:30)
d|--------------------------|
A|--------------------------|
F|--------------------------|
C|--------------------------|
G|22222-2--2-22--2-22-222222|
C|22222-2--2-22--2-22-222222|

Verse 1 (Play 4x) 0:31-0:45)
d|---------------------------|
A|---------------------------|
F|---------------------------|
C|---------------------------|
G|22222-----222------22222-22|
C|22222-2-2--2--2-2--22222-22|

Interlude 0:46-1:24
No guitar


Chorus (Play each chord 16x) On the second play, replace the final two chords with the 
ending. (Play x2) 1:24-1:47
d|-------------|-----------------------------------------------|
A|-------------|-----------------------------------------------|
F|5------------|-----------------------------------------------|
C|5---6---8---3|8--8-8-111-111-8--8-8-111-111-1---------------1|
G|3---6---8---3|8--8-8-111-111-8--8-8-111-111-1---------------1|
C|----6---8---3|8--8-8-000-000-8--8-8-000-000-0---------------0|

Bridge Part 1 1:48-1:54
d|----------------------------------|
A|----------------------------------|
F|----------------------------------|
C|----------------------------------|
G|-------------0-00-0-0-0-----------|
C|8-2-0--2-0---0-00-0-0-0-8-2-0--2-0|

Bridge Part 2 (Play 2x) 1:55-2:10
d|-----------------------------------------------|
A|-----------------------------------------------|
F|-----------------------------------------------|
C|------------------------------------3--3-3-3--3|
G|-------------0-00-0-0-0-------------0--0-0-0--0|
C|8-2-0--2-0---0-00-0-0-0-8-2-0--2-0--1--1-1-1--1|

Chorus (Play each chord 16x) On the fourth and sixth play, replace the final two chords 
the second ending. (Play x6) 1:56-2:56
d|-------------|-----------------------------------------------|
A|-------------|-----------------------------------------------|
F|5------------|-----------------------------------------------|
C|5---6---8---3|8--8-8-111-111-8--8-8-111-111-1---------------1|
G|3---6---8---3|8--8-8-111-111-8--8-8-111-111-1---------------1|
C|----6---8---3|8--8-8-000-000-8--8-8-000-000-0---------------0|

Outro (Play 4x) 2:57-3:17
d|--------------------------|
A|--------------------------|
F|--------------------------|
C|--------------------------|
G|22222-2--2-22--2-22-222222|
C|22222-2--2-22--2-22-222222|
            
Submit corrections

comments powered by Disqus
↑ Back to top | Attack Attack Tabs for Sexual Man Chocolate. Lyrics for acoustic guitar and electric guitar. Tablatures and chords are parodies/interpretations of the original songs. You may use it for private study, scholarship, research or language learning purposes only