>
 >
Sexual Man Chocolate

Sexual Man Chocolate Guitar Tabs

Attack Attack - Sexual Man Chocolate chords, tabs, tablatures, lyrics

Guitar lessons | Add/correct | Request | Top 50 tabs Artists:  A B C D E F G H I J K L M N O P Q R S T U V W X Y Z 0-9

Sexual Man Chocolate Guitar Tabs – Attack Attack

CD, Sheet music, Poster

Do you like Sexual Man Chocolate? Share with your friends now
TabsTabs v2Tabs v3Tabs v4
Attack Attack! - Sexual Man Chocolate

Used in this tab:
/ - slide
. - palm mute
b - bend
~ - let ring
x - mute


Please keep in mind that the video was made before
I finished this tab so this is a lot more accurate
than what you see and hear in the video.

Drop B (B-F#-B-E-G#-C#)

Intro - (0:15)
C#|-----------------------------|
G#|-----------------------------|
E-|-----------------------------|
B-|-000000-0-0-00-0-00-00000-00-| x4
F#|-000000-0-0-00-0-00-00000-00-|
B-|-000000-0-0-00-0-00-00000-00-|
PM  ...... . . .. . .. ..... ..

Verse - (0:30)
C#|-------------------------------|
G#|-------------------------------|
E-|-------------------------------|
B-|-00000----------------00000-00-| x4
F#|-00000-------0----0---00000-00-|
B-|-00000-0-0-0-0-00-0-0-00000-00-|
PM  .....       .    .   ..... ..

Chorus - (1:24)
Guitar 1
C#|-----------------------------------------------------------|
G#|-----------------------------------------------------------|
E-|-77-777-7-1010-101010-10-55-555-5-77-777-7-----------------|
B-|-xx-xxx-x-x-x--x-x-x--x--xx-xxx-x-55-555-5-----------------|
F#|-55-555-5-8-8--8-8-8--8--33-333-3-55-555-5-----------------|
B-|----------------------------------55-555-5-----------------|
                                                              |
Guitar 2                                                      |
C#|-----------------------------------------------------------|
G#|-----------------------------------------------------------|
E-|-1414-141414-14-1010-101010-10/1212-12121212-1212-77-777-7-|
B-|-x-x--x-x-x--x--x-x--x-x-x--x-/x-x--x-x-x-x--x-x--xx-xxx-x-|
F#|-1212-121212-12-8-8--8-8-8--8-/1010-10101010-1010-55-555-5-|
B-|-----------------------------------------------------------|

Guitar 1
C#|-------------------------------|
G#|-------------------------------|
E-|-77-777-7-1010-101010-10-------|
B-|-xx-xxx-x-x-x--x-x-x--x--------|
F#|-55-555-5-8-8--8-8-8--8--------|
B-|-------------------------------|
                                  |
Guitar 2                          |
C#|-------------------------------|
G#|-------------------------------|
E-|-1414-141414-14-1010-101010-10-|
B-|-x-x--x-x-x--x--x-x--x-x-x--x--|
F#|-1212-121212-12-8-8--8-8-8--8--|
B-|-------------------------------|

Breakdown - 1:35
C#|-----------------------------------------------------|
G#|-----------------------------------------------------|
E-|-----------------------------------------------------|
B-|--------------------------------------000-0000-0~-0~-|
F#|-------------000---00-----------------000-0000-0~-0~-|
B-|-10b-10b-10b-000-0-00-0-0-11b-11b-11b-000-0000-0~-0~-|
PM              ...   ..                 ... ....

Breakdown - 1:47
C#|---------------------------------------|
G#|---------------------------------------|
E-|---------------------------------------|
B-|-------------0-00-0-000000-------------|
F#|-3-----------0-00-0-000000-3-----------|
B-|---3b-0-2b-0-0-00-0-000000---3b-0-2b-0-|
PM              . .. . ......

C#|-----------------------------------------------|
G#|-----------------------------------------------|
E-|-----------------------------------------------|
B-|-------------0-00-0-000000-------------00-0-00-| x2
F#|-3-----------0-00-0-000000-3-----------00-0-00-|
B-|---3b-0-2b-0-0-00-0-000000---3b-0-2b-0-11-1-11-|
PM              . .. . ......             ..   ..

Bridge - (2:10)
C#|-------------------------------------------------------------| \
G#|-------------------------------------------------------------| |
E-|-1414-14141414-1414-1010-10101010-1010-10/1212-12121212-1212-| |
B-|-x-x--x-x-x-x--x-x--x-x--x-x-x-x--x-x--x-/x-x--x-x-x-x--x-x--| |
F#|-1212-12121212-1414-8-8--8-8-8-8--8-8--8-/1010-10101010-1010-| |
B-|-------------------------------------------------------------| |
                                                                  | x2
C#|------------|                                                  |
G#|------------|                                                  |
E-|-77-7777-77-|                                                  |
B-|-xx-xxxx-xx-|                                                  |
F#|-55-5555-55-|                                                  |
B-|------------|                                                  /

Chorus - (2:25)
Guitar 1
C#|-----------------------------------------------------------|
G#|-----------------------------------------------------------|
E-|-77-777-7-1010-101010-10-55-555-5-77-777-7-----------------|
B-|-xx-xxx-x-x-x--x-x-x--x--xx-xxx-x-55-555-5-----------------|
F#|-55-555-5-8-8--8-8-8--8--33-333-3-55-555-5-----------------|
B-|----------------------------------55-555-5-----------------|
                                                              |
Guitar 2                                                      |
C#|-----------------------------------------------------------|
G#|-----------------------------------------------------------|
E-|-1414-141414-14-1010-101010-10/1212-12121212-1212-77-777-7-|
B-|-x-x--x-x-x--x--x-x--x-x-x--x-/x-x--x-x-x-x--x-x--xx-xxx-x-|
F#|-1212-121212-12-8-8--8-8-8--8-/1010-10101010-1010-55-555-5-|
B-|-----------------------------------------------------------|

Guitar 1
C#|-------------------------------|
G#|-------------------------------|
E-|-77-777-7-1010-101010-10-------|
B-|-xx-xxx-x-x-x--x-x-x--x--------|
F#|-55-555-5-8-8--8-8-8--8--------|
B-|-------------------------------|
                                  |
Guitar 2                          |
C#|-------------------------------|
G#|-------------------------------|
E-|-1414-141414-14-1010-101010-10-|
B-|-x-x--x-x-x--x--x-x--x-x-x--x--|
F#|-1212-121212-12-8-8--8-8-8--8--|
B-|-------------------------------|
                                                
C#|-----------------------------------------------|   
G#|-----------------------------------------------|   
E-|-----------------------------------------------|   
B-|--------------------------------------000-0000-|   
F#|-------------000---00-----------------000-0000-|   
B-|-10b-10b-10b-000-0-00-0-0-11b-11b-11b-000-0000-|  
PM              ...   ..                 ... ....

(Play the chorus a second time before playing the outro)

Outro - (2:56)
C#|-------------------------------|
G#|-------------------------------|
E-|-------------------------------|
B-|-000000---------------00000-00-| x4
F#|-000000-0-0-0---0-0---00000-00-|
B-|-000000-0-0-0-0-0-0-0-00000-00-|
PM  ...... . . .   . .   ..... ..





Comments


Popular Attack Attack tabs & chords
This Is A Test 2 Bass Tabs
All Alone Chords
You And Me Chords
Ac 130 Tabs
Outro Tabs
Renob, Nevada Tabs
Stick Stickly 5 Tabs
The Wretched Tabs
Were Not The Enemy 1 Tabs
Turbo Swag Ukulele


Song lyrics



↑ Back to top | Tablatures and chords are parodies/interpretations of the original songs. You may use it for private study, scholarship, research or language learning purposes only
© 2014 AZChords.com Contact us | Privacy policy | DMCA | Add/correct tabs | Request tabs | Top 50 tabs