» » »

Attack Attack, Smokahontas Bass tabs (ver.1)

Artists:  A B C D E F G H I J K L M N O P Q R S T U V W X Y Z # 

Smokahontas Bass tabs (ver.1)

Attack Attack Tabs
Rating:
0/5 (0 votes)
Smokahontas lessons Tabs too difficult? Try these video lessons and learn fast
                Attack Attack - Smokahontas

Intro
E |---------------------------------------------------------------------------|
B |---------------------------------------------------------------------------|
F#|---------------------------------------------------------------------------|
B |-1-1-1-1--1-1-1-1-1-1--1-1-1-1---3h6p4p3-3h6p4p3--1-1-1-1--1-1-1-1-1-1-----| x2

Verse  
E |---------------------------------------------------------------------------|
B |---------------------------------------------------------------------------|
F#|---------------------------------------------------------------------------|
B |-0-0-0-0--0-0-0-0-0-0--0-0-0-0---3h6p4p3-3h6p4p3--0-0-0-0--0-0-0-0-0-0-----| x2


Don’t play hammer ons or pull offs second time round

Chorus
E |---------------------------------------------------------------------------|
B |---------------------------------------------------------------------------|
F#|---------------------------------------------------------------------------|
B |-5-5-5-5-5-5-5-5--8-8-8-8-8-8-8-8--0-0-0-0-0-0-0-0--3-3-3-3-3-3-3-3--------| x2

E |---------------------------------------------------------------------------|
B |---------------------------------------------------------------------------|
F#|---------------------------------------------------------------------------|
B |-8-8-8-8-8-8-8-8--8-8-8-8-8-8-8-8--3-3-3-3-3-3-3--7-7-7-7-7-7-7-7----------|

E |---------------------------------------------------------------------------|
B |---------------------------------------------------------------------------|
F#|-----------------------9-/10/9---------------------8-8-8-8-8-8-8-8---------|
B |-3-5-0-1-0---000000-0------------3-5-0-1-0---0000--------------------------|
            
Breakdown 1
E |-------------------------|--|-----------------------|
B |-------------------------|--|-----------------------|
F#|-------------------------|--|-----------------------|
B |-000-1p0-000---1p0---1p0-|--|-000-1p0---1p0-0-0-0-0-|
                  

Chorus
E |---------------------------------------------------------------------------|
B |---------------------------------------------------------------------------|
F#|---------------------------------------------------------------------------|
B |-5-5-5-5-5-5-5-5--8-8-8-8-8-8-8-8--0-0-0-0-0-0-0-0--3-3-3-3-3-3-3-3--------| x2

E |---------------------------------------------------------------------------|
B |---------------------------------------------------------------------------|
F#|---------------------------------------------------------------------------|
B |-8-8-8-8-8-8-8-8--8-8-8-8-8-8-8-8--3-3-3-3-3-3-3--7-7-7-7-7-7-7-7----------| x2


Techno rave bit


Breakdown 2
E |---------------------------------------------------------|
B |---------------------------------------------------------|
F#|---------------------------------------------------------|
B |-000-1p0-000---1p0---1p0---------------------------------| x2
                     

Breakdown 3
E |-------------------------------------------------------|
B |-------------------------------------------------------|
F#|-------------------------------------------------------|
B |-0-0-0-1-0--4--000--1p0-0-1---0-0-0-1-0--6-6-6-6-6-6-6-|
              
Breakdown 4
E |-------------------|
B |-------------------|
F#|-------------------||
B |-11111-1-11-1-1111-|
   

Breakdown 5
E |-------------------------------------------------------------------|
B |-------------------------------------------------------------------|
F#|-------------------------------------------------------------------|
B |-1-1-1-1-1--1--1-1--1-1111111--1-1-1-1-1--1--1-1--1-1111111--3/7\3-|


Breakdown 6
E |----------------------------------------------|
B |----------------------------------------------|
F#|----------------------------------------------|
B |-0-0-0-0-0--0--0-0-0--0-0-0-0-0-0-0--0--0-0-0-|
similar rhythm to breakdown 5

Outro

E |------------------------------------|
B |------------------------------------|
F#|------------------------------------|
B |-0-0-0-0-0--3/7\3--0-0-12~-0000-0-0-| x4

Hammer
            
Submit corrections

comments powered by Disqus
↑ Back to top | Attack Attack Bass for Smokahontas. Lyrics for acoustic guitar and electric guitar. Tablatures and chords are parodies/interpretations of the original songs. You may use it for private study, scholarship, research or language learning purposes only