» » »

A Skylit Drive, My Disease Tabs (ver.2)

Artists:  A B C D E F G H I J K L M N O P Q R S T U V W X Y Z # 

My Disease Tabs (ver.2)

A Skylit Drive Tabs
 Rating:
4.3/5 (6 votes)
My Disease lessons Tabs too difficult? Try these video lessons and learn fast
                band: A Skylit Drive
Tuning: Drop D


ok well the other tab was good just it sounded to high. lol so heres my version. i hope 
like it. listen to the song for strum patterns

Intro:

Guitar 1:
e|-----------------------|
B|-----------------------|
G|-----10----------12----| x2
D|---------8----------8--|
A|--10----------10-------|
D|-----------------------|


Verse:

Guitar 1:
e|------------------------------------------|
B|------------------------------------------|
G|-----10----------12-----------------------| x2
D|---------8----------8------------------8--|
A|--10----------10----------------8h9h10----|
D|------------------------------------------|

Guitar 2:
e|----10------10----------------10----------|
B|-------8-------8-----------------8--------|
G|------------------------------------------| x2
D|--5-------5-------5-8-3-----5-------------|
A|--5-------5-------5-8-3-----5-------------|
D|--5-------5-------5-8-3-----5-------------|

then...
e|----10------------|
B|------10----------| do that till chorus...
G|--------11--------|
D|------------------|
A|------------------|
D|------------------|


Chorus:

Both Guitars: ( As he enters...)
e|-------------------------------------------|
B|-------------------------------------------|
G|-------------------------------------------|
D|-55555555-8888-3333-55555555-8888-10101010-|
A|-55555555-8888-3333-55555555-8888-10101010-|
D|-55555555-8888-3333-55555555-8888-10101010-|

( the terror inflicted...)
e|-------------------------------------------|
B|-------------------------------------------|
G|-------------------------------------------|
D|-55555555-8888-3333-10101010-12121212------|
A|-55555555-8888-3333-10101010-12121212------|
D|-55555555-8888-3333-10101010-12121212------|

e|------|
B|------|
G|------|
D|--5/--|
A|--5/--|
D|--5/--|


Verse 2:

Guitar 1:
e|------------------------------------------|
B|------------------------------------------|
G|-----10----------12-----------------------| x2
D|---------8----------8------------------8--|
A|--10----------10----------------8h9h10----|
D|------------------------------------------|

Guitar 2:
e|----10------10----------------10----------|
B|-------8-------8-----------------8--------|
G|------------------------------------------| x2
D|--5-------5-------5-8-3-----5-------------|
A|--5-------5-------5-8-3-----5-------------|
D|--5-------5-------5-8-3-----5-------------|

then...
e|----10------------|
B|------10----------| do that till chorus...
G|--------11--------|
D|------------------|
A|------------------|
D|------------------|


Chorus 2:

Both Guitars: ( As he enters...)
e|-------------------------------------------|
B|-------------------------------------------|
G|-------------------------------------------|
D|-55555555-8888-3333-55555555-8888-10101010-|
A|-55555555-8888-3333-55555555-8888-10101010-|
D|-55555555-8888-3333-55555555-8888-10101010-|

( the terror inflicted...)
e|-------------------------------------------|
B|-------------------------------------------|
G|-------------------------------------------|
D|-55555555-8888-3333-10101010-12121212------|
A|-55555555-8888-3333-10101010-12121212------|
D|-55555555-8888-3333-10101010-12121212------|


Synth's little part then...

( It's exactly What it... ) do this whole part 3 times
e|----------------------------------------------------|
B|----------------------------------------------------|
G|----------------------------------------------------|
D|-55555555-88888888-10101010101010101010101010101010-|
A|-55555555-88888888-10101010101010101010101010101010-|
D|-55555555-88888888-10101010101010101010101010101010-|

( The horro I love... )
e|------------------------------------|
B|------------------------------------|
G|------------------------------------|
D|-55555555-88888888-3333333333333333-|
A|-55555555-88888888-3333333333333333-|
D|-55555555-88888888-3333333333333333-|

end on:      and maybe guitar 2 ends on... but im not sure.
e|------|        e|------|
B|------|        B|------|
G|------|        G|------|
D|--5~--|        D|--0~--|
A|--5~--|        A|--0~--|
D|--5~--|        D|--0~--|

ok so there you go i hope you liked it. any questions message me or comment me or IM me 

rate and comment! please. :]

| ~ let it ring |
| / slide       |
| h hammer on   |
            
Submit corrections

comments powered by Disqus
↑ Back to top | A Skylit Drive Tabs for My Disease. Lyrics for acoustic guitar and electric guitar. Tablatures and chords are parodies/interpretations of the original songs. You may use it for private study, scholarship, research or language learning purposes only