» » »

A Skylit Drive, My Disease Bass tabs (ver.1)

Artists:  A B C D E F G H I J K L M N O P Q R S T U V W X Y Z # 

My Disease Bass tabs (ver.1)

A Skylit Drive Tabs
 Rating:
4/5 (4 votes)
My Disease lessons Tabs too difficult? Try these video lessons and learn fast
1
                mmkay... so these are the tabs for My Disease... here it's written in standard because 
thats how i learned it. it may be in drop D, but it sounds almost the same in standard...
i'm still learning, but they seem correct, and they should be easy enough to play along with.
enjoy!



*bass comes in imediately after the beginning drum beat*
"Awaken to the eyes of glazed humor. The haze in my somber eyes. it burns. so cold"
G-----------------------|
D------------------3----|   (3x)
A-------1-----3~5-------|
E-333------13-----------|


"a phase you wish you could know"
(pre-chorus)
G-------------------------|
D-------------------------|
A------00--------00-------|
E-22--------22--------22--|


"as he enters into the world...
(chorus)
*switch notes after 2nd kickdrum hit*
G--------------------------------------------------|
D-------011-------------0--------------------00----|
A-----1------13------1---------(speed up)33--------|
E-33-------------33--------11--------------------3-|


"oh i see what you mean to me...
G-----------------------|
D------------------3----|   (3x)
A-------1-----3~5-------|
E-333------13-----------|


"disease and what i need"
(pre-chorus)
G-------------------------|
D-------------------------|
A------00--------00-------|
E-22--------22--------22--|


"as he enters into the world...
(chorus)
G--------------------------------------------------|
D-------011-------------0--------------------00----|
A-----1------13------1---------(speed up)33--------|
E-33-------------33--------11--------------------3-|
...let him hold you close"


*rest*

begin when drum starts


"it's exactly what it seems...
*play slow*
(bridge)
G---------------------------|
D--------------11-----------|    (3x)
A----11-3333------11-3333---|
E-11------------------------|


"it's called My Disease"
G-----|
D-----|
A-----|
E--3--|


hope it's easy enough to play
            
Submit corrections

comments powered by Disqus
↑ Back to top | A Skylit Drive Bass for My Disease. Lyrics for acoustic guitar and electric guitar. 1 Tablatures and chords are parodies/interpretations of the original songs. You may use it for private study, scholarship, research or language learning purposes only