>
 >
My Disease

My Disease Guitar Tabs

A Skylit Drive - My Disease chords, tabs, tablatures, lyrics

Guitar lessons | Add/correct | Request | Top 50 tabs Artists:  A B C D E F G H I J K L M N O P Q R S T U V W X Y Z 0-9

My Disease Guitar Tabs – A Skylit Drive

CD, Sheet music, Poster

Do you like My Disease? Share with your friends now
Bass TabsTabsTabs v2
A Skylit Drive
Wires And The Concept of Breathing (2008)

Drop D..

intro:
|----------------------------------------------------|
|----------------------------------------------------|
|------11----------13---------------11---------13----|
|----------9----------9----------------9----------9--|
|---11----------11---------------11---------11-------|
|----------------------------------------------------|


verse:
guitar1:
|------------------------------------------|
|------------------------------------------|
|----11----------13------------------------|
|-------9-----------9----------------9-----| x2?
|-11----------11-------------9h10h11-------|
|------------------------------------------|

guitar2:
|---11------11-----------------11------------|
|------9-------9------------------9----------|
|--------------------------------------------|
|-6-------6-------6--9--4----6---------------| x2?
|-6-------6-------6--9--4----6---------------|
|-6-------6-------6--9--4----6---------------|

prechorus:
|---------------11-------------------------|
|------------------11----------------------|
|---------------------12-------------------|
|------------------------------------------| x alot
|------------------------------------------|
|------------------------------------------|

chorus:[as he enters into...]those are 11s not 1s..
|--------------------------------------------|
|--------------------------------------------|
|--------------------------------------------|
|-66666666-9999-4444-66666666-9999-11111111--|
|-66666666-9999-4444-66666666-9999-11111111--|
|-66666666-9999-4444-66666666-9999-11111111--|

[the terror inflicted...]
|------------------------------------------------|
|------------------------------------------------|
|------------------------------------------------|
|-66666666-9999-4444-66666666-11111111-13131313--|
|-66666666-9999-4444-66666666-11111111-13131313--|
|-66666666-9999-4444-66666666-11111111-13131313--|


end chorus on:
|------------|
|------------|
|------------|
|-----6/-----|
|-----6/-----|
|-----6/-----|

intro:
|----------------------------------------------------|
|----------------------------------------------------|
|------11----------13---------------11---------13----|
|----------9----------9----------------9----------9--|
|---11----------11---------------11---------11-------|
|----------------------------------------------------|


verse:
guitar1:
|------------------------------------------|
|------------------------------------------|
|----11----------13------------------------|
|-------9-----------9----------------9-----| x2?
|-11----------11-------------9h10h11-------|
|------------------------------------------|

guitar2:
|---11------11-----------------11------------|
|------9-------9------------------9----------|
|--------------------------------------------|
|-6-------6-------6--9--4----6---------------| x2?
|-6-------6-------6--9--4----6---------------|
|-6-------6-------6--9--4----6---------------|

prechorus:
|---------------11-------------------------|
|------------------11----------------------|
|---------------------12-------------------|
|------------------------------------------| x alot
|------------------------------------------|
|------------------------------------------|

chorus:[as he enters into...]
|--------------------------------------------|
|--------------------------------------------|
|--------------------------------------------|
|-66666666-9999-4444-66666666-9999-11111111--|
|-66666666-9999-4444-66666666-9999-11111111--|
|-66666666-9999-4444-66666666-9999-11111111--|

[the terror inflicted...]
|------------------------------------------------|
|------------------------------------------------|
|------------------------------------------------|
|-66666666-9999-4444-66666666-11111111-13131313--|
|-66666666-9999-4444-66666666-11111111-13131313--|
|-66666666-9999-4444-66666666-11111111-13131313--|

break:

synth part:here's the part i got..
|----------|--------------------------------------------|-----------------|
|----------|--12-11----12-11----14-12-11-12-11----------|-15-13-11-10-----|
|-11-11-13-|--------11-------11----------------11-11-13-|-------------11--|
|----------|--------------------------------------------|-----------------|
|----------|--------------------------------------------|-----------------|
|----------|--------------------------------------------|-----------------|

then:

[its exactly what it seems...]those are 11s...
|-----------------------------------------------------|
|-----------------------------------------------------|
|-----------------------------------------------------|
|-66666666-99999999-11111111111111111111111111111111--|
|-66666666-99999999-11111111111111111111111111111111--|
|-66666666-99999999-11111111111111111111111111111111--|

[the horror i ...]
|-------------------------------------|
|-------------------------------------|
|-------------------------------------|
|-66666666-99999999-4444444444444444--|
|-66666666-99999999-4444444444444444--|
|-66666666-99999999-4444444444444444--|


play the stuff above 3 times...^^

and uhmm, on the above part too, the synth plays something like this:
|---------------|
|-8-10-11-10-8--|
|---------------|
|---------------| x?
|---------------|
|---------------|


end on:
|--------|
|--------|
|--------|
|---6~---|
|---6~---|
|---6~---|



that's all i think...^^





Comments


Popular A Skylit Drive tabs & chords
A Reason For Broken Wings Chords
According To Columbus Chords
All It Takes For Your Dreams To Come True Tabs
All Star Diaries Tabs
Drown The City Tabs
Drown The City 1 Tabs
Fuck The System Tabs
Just Stay Tabs
A Reason For Broken Wings Ukulele
Knights Of The Round Ukulele


Song lyrics



↑ Back to top | Tablatures and chords are parodies/interpretations of the original songs. You may use it for private study, scholarship, research or language learning purposes only
© 2014 AZChords.com Contact us | Privacy policy | DMCA | Add/correct tabs | Request tabs | Top 50 tabs