» » »

A Skylit Drive, All It Takes For Your Dreams To Come True Tabs (ver.2)

Artists:  A B C D E F G H I J K L M N O P Q R S T U V W X Y Z # 

All It Takes For Your Dreams To Come True Tabs (ver.2)

A Skylit Drive Tabs
 Rating:
4/5 (19 votes)
All It Takes For Your Dreams To Come True lessons Tabs too difficult? Try these video lessons and learn fast
                A Skylit Drive
All It Takes For Your Dreams To Come True
Album:Wires And The Concept of Breathing

drop D

intro:(0:06)
|----------------------------------------|
|----------------------------------------|
|----------5\33333333--------------------|
|-00000000-5\33333333-33333333-22222222--|
|-00000000-3\11111111-33333333-22222222--|
|-00000000------------33333333-22222222--|
           |put stops|

verse:(0:16)havent figured out yet..
|--------------------------------------------------|
|--------------------------------------------------|
|--------------------------------------------------|
|--------------------------------------------------|
|--------------------------------------------------|
|--------------------------------------------------|

then:
guitar1:
|--------------6-------6-------6--------|
|------------------7-------7-------7-7--|
|---------------------------------------|
|-xx-8-xx-88-x---x---x---x---x---x------|
|-xx-8-xx-88-x---x---x---x---x---x------|
|-xx-8-xx-88-x---x---x---x---x---x------|

guiatr2:
|--------------8-------8-------8--------|
|------------------10------10------10---|
|---------------------------------------|
|-xx-8-xx-88-x---x---x---x---x---x------|
|-xx-8-xx-88-x---x---x---x---x---x------|
|-xx-8-xx-88-x---x---x---x---x---x------|

then:
guitar1:
|--------------6-------6-|
|------------------7-----|
|------------------------|
|-xx-8-xx-88-x---x---x---|
|-xx-8-xx-88-x---x---x---|
|-xx-8-xx-88-x---x---x---|

guiatr2:
|--------------8-------8---|
|------------------10------|
|--------------------------|
|-xx-8-xx-88-x---x---x---x-|
|-xx-8-xx-88-x---x---x---x-|
|-xx-8-xx-88-x---x---x---x-|

then:(0:30?)
|---------------------------------------------------|
|---------------------------------------------------|
|---------------------------------------------------|
|-----0---------------------------------------------|
|-----0-( x alot... )-------------------------------|
|-----0---------------------------------------------|

chorus:our last time...
|-----------------------------------------|
|-----------------------------------------|
|-----------------------------------------|
|-00000000-10\88888888-33333333-22222222--|
|-00000000-10\88888888-33333333-22222222--|
|-00000000-10\88888888-33333333-22222222--|
           |put stops|


|-----------------------------------------|
|-----------------------------------------|
|-------------------------------55555555--|
|-00000000-10\88888888-33333333-55555555--|
|-00000000-10\88888888-33333333-33333333--|
|-00000000-10\88888888-33333333-----------|
           |put stops|

post chorus riff:(0:56)
guitar1:
|--------------------------------------------------|
|--------------------------------------------------|
|--------------------------------------------------|
|---------5-7-8-7----------------------------------|
|-----5-----------5-8-7--4-5^----------------------|
|-0-0---0------------------------------------------|
  . .   .

guitar2:
|--------------------------------------------------|
|--------------------------------------------------|
|-------------5------------------------------------|
|---------7-----------8-------8--------------------|
|-----5-----8---8-6-7---7-6-7---7------------------|
|-0-0---0------------------------------------------|
  . .   .

then:(1:00?)
|--------------------------------------------------------|
|--------------------------------------------------------|
|--------------------------------------------------------|
|-0-0-000000-8-8-8-8-0-0-000000-0h2h3-0h2h3-0h2h3-0h2h3--|
|-0-0-000000-8-8-8-8-0-0-000000--------------------------|
|-0-0-000000-8-8-8-8-0-0-000000--------------------------|

|--------------------------------------------------------|
|--------------------------------------------------------|
|--------------------------------------------------------|
|-0-0-000000-8-8-8-8-0-0-000000-0h2h3-0h2h3-0h2h3-0h2h3--|
|-0-0-000000-8-8-8-8-0-0-000000--------------------------|
|-0-0-000000-8-8-8-8-0-0-000000--------------------------|
                               |--this part is played --|
                               |--   twice  here...   --|

verse:(1:12)the unknown part yet..
|--------------------------------------------------|
|--------------------------------------------------|
|--------------------------------------------------|
|--------------------------------------------------|
|--------------------------------------------------|
|--------------------------------------------------|

then:
guitar1:
|--------------6-------6-------6--------|
|------------------7-------7-------7-7--|
|---------------------------------------|
|-xx-8-xx-88-x---x---x---x---x---x------|
|-xx-8-xx-88-x---x---x---x---x---x------|
|-xx-8-xx-88-x---x---x---x---x---x------|

guiatr2:
|--------------8-------8-------8--------|
|------------------10------10------10---|
|---------------------------------------|
|-xx-8-xx-88-x---x---x---x---x---x------|
|-xx-8-xx-88-x---x---x---x---x---x------|
|-xx-8-xx-88-x---x---x---x---x---x------|

then:
guitar1:
|--------------6-------6-|
|------------------7-----|
|------------------------|
|-xx-8-xx-88-x---x---x---|
|-xx-8-xx-88-x---x---x---|
|-xx-8-xx-88-x---x---x---|

guiatr2:
|--------------8-------8---|
|------------------10------|
|--------------------------|
|-xx-8-xx-88-x---x---x---x-|
|-xx-8-xx-88-x---x---x---x-|
|-xx-8-xx-88-x---x---x---x-|

then:(0:30?)
|---------------------------------------------------|
|---------------------------------------------------|
|---------------------------------------------------|
|-----0---------------------------------------------|
|-----0-( x alot... )-------------------------------|
|-----0---------------------------------------------|

chorus:our last time...(1:30)
|-----------------------------------------|
|-----------------------------------------|
|-----------------------------------------|
|-00000000-10\88888888-33333333-22222222--|
|-00000000-10\88888888-33333333-22222222--|
|-00000000-10\88888888-33333333-22222222--|
           |put stops|


|-----------------------------------------|
|-----------------------------------------|
|-------------------------------55555555--|
|-00000000-10\88888888-33333333-55555555--|
|-00000000-10\88888888-33333333-33333333--|
|-00000000-10\88888888-33333333-----------|
           |put stops|

then:this time we fight..(1:52)
|-----------------------------------------|
|-----------------------------------------|
|-----------------------------------------|
|-00000000-10\88888888-33333333-22222222--|
|-00000000-10\88888888-33333333-22222222--|
|-00000000-10\88888888-33333333-22222222--|
           |put stops|


|-----------------------------------------|
|-----------------------------------------|
|-------------------------------55555555--|
|-00000000-10\88888888-33333333-55555555--|
|-00000000-10\88888888-33333333-33333333--|
|-00000000-10\88888888-33333333-----------|
           |put stops|

outro:the bringers of light..(2:13)
|---------------------------------------------------|
|---------------------------------------------------|
|---------------------------------------------------|
|-0-------------------------------------------------|
|-0- lots of zeros.. just figure out pattern..------|
|-0-------------------------------------------------|


that's all...^^
            
Submit corrections

comments powered by Disqus
↑ Back to top | A Skylit Drive Tabs for All It Takes For Your Dreams To Come True. Lyrics for acoustic guitar and electric guitar. Tablatures and chords are parodies/interpretations of the original songs. You may use it for private study, scholarship, research or language learning purposes only