» » »

All It Takes For Your Dreams To Come True Bass tabs (ver.1)

Artists:  A B C D E F G H I J K L M N O P Q R S T U V W X Y Z # 

All It Takes For Your Dreams To Come True Bass tabs (ver.1)

A Skylit Drive
Rating:
5/5 (4 votes)

Hard to play? Try these video lessons and learn fast.
                +++++++++++++++++++++++++++++++++++++++++++++++++++++++++++++
| A Skylit Drive- All It Takes For Your Dreams To Come True |
+++++++++++++++++++++++++++++++++++++++++++++++++++++++++++++


"The glass that separates our touch soaring into the unknown skies..."

Tuning: Drop D (DADG)


Intro
1.
G|-------------------------------------------------------------------------|
D|-------------------------------------------------------------------------|
A|---------------333-1-11-1-1-1-1-111--------------------------------------|
D|-0-00-00000000----------------------3-3333333-33333333-22222222-22222222-|

Verse
"The fire rages in me..."
2.
G|--------------------------------------------------------------------------------------|
D|--------------------------------------------------------------------------------------|
A|-------------------111-111-111-111-111x--------------------------111-111-111-111-1111-|
D|-00x-00000x------------------------------------00x-00000x-----------------------------|

"Fearing what we're fighting for..."
3.
G|---------------------------------|
D|---------------------------------|
A|---------------------------------|
D|-00-00-00-00-0000x---------------|

Chorus
"Our last time to make stars collide..."
4.
G|-------------------------------------------------------------------------|
D|-------------------------------------------------------------------------|
A|---------------333-1-11-1-1-1-1-111--------------------------------------|
D|-0-00-00000000----------------------3-3333333-33333333-22222222-22222222-|

"Believe in everything..."
5.
G|-------------------------------------------------------------------------|
D|-------------------------------------------------------------------------|
A|---------------333-1-11-1-1-1-1-111--------------------33333333-33333333-|
D|-0-00-00000000----------------------3-3333333-33333333-------------------|

Outro
6.
G|---------------------------------------------------------------------------------------|
D|---------------------------------------------------------------------------------------|
A|--------------------------------5-5-5-5--------------------------------5-5-5-5-5-5-5-5-|
D|-0x-0x-0000x--------0x-0x-0000x---------0x-0x-0000x--------0x-0x-0000x-----------------|

Verse
"The fire rages in me..."
7.
G|--------------------------------------------------------------------------------------|
D|--------------------------------------------------------------------------------------|
A|-------------------111-111-111-111-111x--------------------------111-111-111-111-1111-|
D|-00x-00000x------------------------------------00x-00000x-----------------------------|

"In our eyes..."
8.
G|---------------------------------|
D|---------------------------------|
A|---------------------------------|
D|-00-00-00-00-0000x---------------|

Chorus
"Our last time to make stars collide..."
9.
G|-------------------------------------------------------------------------|
D|-------------------------------------------------------------------------|
A|---------------333-1-11-1-1-1-1-111--------------------------------------|
D|-0-00-00000000----------------------3-3333333-33333333-22222222-22222222-|

"Believe in everything..."
10.
G|-------------------------------------------------------------------------|
D|-------------------------------------------------------------------------|
A|---------------333-1-11-1-1-1-1-111--------------------33333333-33333333-|
D|-0-00-00000000----------------------3-3333333-33333333-------------------|

"This time we fight..."
11.
G|-----------------------------------------------------------------|
D|-----------------------------------------------------------------|
A|---------------1~-11~-1-1-11-------------------------------------|
D|-0~-00~-0-0-00---------------33333333-33333333-22222222-22222222-|

"This time we fight..."
12.
G|-----------------------------------------------------------------|
D|-----------------------------------------------------------------|
A|---------------1~-11~-1-1-11-------------------33333333-33333333-|
D|-0~-00~-0-0-00---------------33333333-33333333-------------------|

Outro
"The bringers of light..."
13.
G|------------------------------------------------------------------------------------------------|
D|------------------------------------------------------------------------------------------------|
A|------------------------------------------------------------------------------------------------|
D|-000~---00000~---0-0-0-0-000~---00000~---0-0-0-0-000~----00000~----0-0-0-0-000~---00000x--------|

"The bringers of light..."
14.
G|------------------------------------------------------------------------------------------------|
D|------------------------------------------------------------------------------------------------|
A|------------------------------------------------------------------------------------------------|
D|-000~---00000~---0-0-0-0-000~---00000~---0-0-0-0-000~----00000~----0-0-0-0-000~---00000~--------|


Lyrics:


The fire rages in me
Never want to see the roses on your door
The glass that separates our touch
Soaring into the unknown skies 
Fearing what we're fighting for

This is a war we cannot win!

Our last time to make stars collide right before our eyes
Believe in everything, everything you've ever known
Reciting words we lost these years will never be untold
I won't be alone

The fire rages in me
Daylight fights through the night with the cries of redemption
The sun ignites the light in our eyes

And is this possible

This time we fight side by side, you and I

The bringers of light... the teeth in the night
I won't be alone



+++++++++++++++++++++++++++++++++
| RaiLeff                       |
+++++++++++++++++++++++++++++++++
            
Hard to play? Try these video lessons and learn fast. | Correct




comments powered by Disqus
↑ Back to top | Tablatures and chords are parodies/interpretations of the original songs. You may use it for private study, scholarship, research or language learning purposes only