>
 >
All It Takes For Your Dreams To Come True

All It Takes For Your Dreams To Come True Guitar Tabs

A Skylit Drive - All It Takes For Your Dreams To Come True chords, tabs, tablatures, lyrics

Guitar lessons | Add/correct | Request | Top 50 tabs Artists:  A B C D E F G H I J K L M N O P Q R S T U V W X Y Z 0-9

All It Takes For Your Dreams To Come True Guitar Tabs – A Skylit Drive

CD, Sheet music, Poster

Do you like All It Takes For Your Dreams To Come True? Share with your friends now
Bass TabsChordsTabsTabs v2Ukulele

ALL IT TAKES FOR YOUR DREAMS TO COME TRUE
As recorded by A Skylit Drive
(From the 2008 Album WIRES...AND THE CONCEPT OF BREATHING)

        

Words and Music by A Skylit Drive

Gtr I (D A D G B E) - 'Left Channel'
Gtr II (D A D G B E) - 'Right Channel'
Gtr III (E A D G B E) - 'Keys'

 Keyboard Intro
  Post-Hardcore Q=172
  N.C.
 4/4
  Gtr III
  W           E  E E  E E  E  E  E
|----------|------------8----------|
|----------|-11----8-10---11-10----|
|----------|----10--------------10-|
|----------|-----------------------|
|----------|-----------------------|
|----------|-----------------------|
|
| Gtrs I, II
| W           W
|----------|-----------------------|
|----------|-----------------------|
|----------|-----------------------|
|----------|-----------------------|
|----------|-----------------------|
|----------|-----------------------|


                                                 D5
   E  E E  E  E  E E  E    E  E E  E  H
|-----------------------|---------------------------||
|-11----8-10-11----8-10-|-11----8-10----------------||
|----10---------10------|----10---------------------||
|-----------------------|---------------------------||
|-----------------------|---------------------------||
|-----------------------|---------------------------||
|
|  W                       H          E   E   E  E
|-----------------------|---------------------------||
|-----------------------|---------------------------||
|-----------------------|---------------------------||
|-----------------------|------------<3>-<3>-<3>-0--||
|-----------------------|------------<3>-<3>-<3>-0--||
|-----------------------|------------<3>-<3>-<3>-0--||


 Intro Continued
  D5                       C5    Bb5                                   F5
  Gtr I
  +E  E Q  E E Q    E E Q  E E E E   +E  E E E E E E E   E E E E E E E  E
|-----------------|----------------|-------------------|------------------|
|-----------------|----------------|-------------------|------------------|
|-----------------|--------5-5-5-3-|-(3)-3-3---3---3---|-3---3---3-3-3----|
|-(0)-0-0--0-0-0--|-0-0-0--5-5-5-3-|-(3)-3-3---3---3---|-3---3---3-3-3--3-|
|-(0)-0-0--0-0-0--|-0-0-0--3-3-3-1-|-(1)-1-1---1---1---|-1---1---1-1-1--3-|
|-(0)-0-0--0-0-0--|-0-0-0----------|-------------------|----------------3-|
|
| Gtr II
| +E  E Q  E E Q    E E Q  E E E E   +E  E E E E E E E   E E E E E E E  E
|-----------------|----------------|-------------------|------------------|
|-----------------|----------------|-------------------|------------------|
|-----------------|--------5-5-5-3-|-(3)-3-3---3---3---|-3---3---3-3-3-10-|
|-(0)-0-0--0-0-0--|-0-0-0--5-5-5-3-|-(3)-3-3---3---3---|-3---3---3-3-3--x-|
|-(0)-0-0--0-0-0--|-0-0-0--3-3-3-1-|-(1)-1-1---1---1---|-1---1---1-1-1--8-|
|-(0)-0-0--0-0-0--|-0-0-0----------|-------------------|------------------|


                                             C/E
   +E   E  Q     E  E  Q       E E Q   E E E E
|---------------------------|------------------|
|---------------------------|------------------|
|---------------------------|------------------|
|--(3)--3--3-----3--3--3----|--3-3-3---3-3-3-5-|
|--(3)--3--3-----3--3--3----|--3-3-3---3-3-3-3-|
|--(3)--3--3-----3--3--3----|--3-3-3---3-3-3-2-|
|
|  +E   E  E  E  E  E  E  E    E E E E E E E E
|---------------------------|------------------|
|---------------------------|------------------|
|-(10)-10-10-10-10-10-10-10-|-10s5-5-5-5-5-5-9-|
|--(x)--x--x--x--x--x--x--x-|--x-x-x-x-x-x-x-x-|
|--(8)--8--8--8--8--8--8--8-|--8s3-3-3-3-3-3-7-|
|---------------------------|------------------|


                                N.C.
  +E  E Q  E E Q    E E Q   E E  Q
|-----------------|-------------------||
|-----------------|-------------------||
|-----------------|-------------------||
|-(5)-5-5--5-5-5--|-5-5-5---5-5-<3>---||
|-(3)-3-3--3-3-3--|-3-3-3---3-3-<3>---||
|-(2)-2-2--2-2-2--|-2-2-2---2-2-------||
|
| +E  E Q  E E Q    E E E E E E  E  E
|-----------------|-------------------||
|-----------------|-------------------||
|-(9)-9-9--9-9-9--|-9-9-9-9-9-9--9--9-||
|-(x)-x-x--x-x-x--|-x-x-x-x-x-x--x--x-||
|-(7)-7-7--7-7-7--|-7-7-7-7-7-7--7--7-||
|-----------------|-------------------||


 Verse
  D5  Dm D5  Dm                    Bb5 FmBb5sFmBb5sus4/Bb
  Gtrs I, II
  PM|    PM|                       PM|   PM|   PM|
  E E  E E E  E  E  E   W          E E E E E E E E
|---------------------|----------|-----------------|
|------------10-10-10-|----------|-----------------|
|-----10-----10-10-10-|----------|-----9-----9-----|
|------0------0--0--0-|----------|-----8-----8-----|
|-0-0--0-0-0--0--0--0-|----------|-8-8-8-8-8-8-8-8-|
|-0-0--0-0-0--0--0--0-|----------|-8-8-8-8-8-8-8-8-|


  N.CBb5 N.CBb5 N.CBb5   N.CBb5 N.CBbN.C.  D5
  Gtr I
     PM|    PM|    PM--|    PM|    PM      PM|   PM|
   E E E  E E E  E E   E  E E E  E E  Q    E E E E E E E E
|--8-----------------|-----------8-------|-----------------|
|--------10----------|---10----------10--|-----------3-3-3-|
|---------------10---|-------------------|-----2-----2-2-2-|
|--------------------|-------------------|-----0-----0-0-0-|
|----8-8----8-8----8-|-8----8-8----8-----|-0-0-0-0-0-0-0-0-|
|----8-8----8-8----8-|-8----8-8----8-----|-0-0-0-0-0-0-0-0-|
|
| Gtr II
|    PM|    PM|    PM--|    PM|    PM      PM|   PM|
|  E E E  E E E  E E   E  E E E  E E  Q    E E E E E E E E
|--------------------|-------------------|-----------------|
|-10------------10---|----------10-------|-----------3-3-3-|
|--------10----------|---10----------10--|-----2-----2-2-2-|
|--------------------|-------------------|-----0-----0-0-0-|
|----8-8----8-8----8-|-8----8-8----8-----|-0-0-0-0-0-0-0-0-|
|----8-8----8-8----8-|-8----8-8----8-----|-0-0-0-0-0-0-0-0-|


  N.C.       Bb5 FmBb5sFmBb5susN.CBb5 N.CBb5 N.C.
             PM|   PM|   PM|      PM|    PM|
  W          E E E E E E E E    E E E  E E E  Q
|----------|-----------------|--8-------------8--|
|----------|-----------------|--------10---------|
|----------|-----9-----9-----|-------------------|
|----------|-----8-----8-----|-------------------|
|----------|-8-8-8-8-8-8-8-8-|----8-8----8-8-----|
|----------|-8-8-8-8-8-8-8-8-|----8-8----8-8-----|
|
|            PM|   PM|   PM|      PM|    PM|
| W          E E E E E E E E    E E E  E E E  Q
|----------|-----------------|-------------------|
|----------|-----------------|-10------------10--|
|----------|-----9-----9-----|--------10---------|
|----------|-----8-----8-----|-------------------|
|----------|-8-8-8-8-8-8-8-8-|----8-8----8-8-----|
|----------|-8-8-8-8-8-8-8-8-|----8-8----8-8-----|


  D5                                  N.C.                      D5
  Gtrs I, II
    PM|   PM|   PM--|   PM|   PM
  E E E E E E E E   E E E E E E E E   W          H     E   E  E E
|-----------------|-----------------|----------|------------------||
|-----------------|-----------------|----------|------------------||
|-----------------|-----------------|----------|------------------||
|-0-----0-----0---|---0-----0---0-0-|----------|----------------0-||
|-0-0-0-0-0-0-0-0-|-0-0-0-0-0-0-0-0-|----------|------<3>-<3>---0-||
|-0-0-0-0-0-0-0-0-|-0-0-0-0-0-0-0-0-|----------|----------------0-||


 Chorus
  D5                       C5    Bb5                                   F5
  Gtr I
  +E  E Q  E E Q    E E Q  E E E E   +E  E E E E E E E   E E E E E E E  E
|-----------------|----------------|-------------------|------------------|
|-----------------|----------------|-------------------|------------------|
|-----------------|--------5-5-5-3-|-(3)-3-3---3---3---|-3---3---3-3-3----|
|-(0)-0-0--0-0-0--|-0-0-0--5-5-5-3-|-(3)-3-3---3---3---|-3---3---3-3-3--3-|
|-(0)-0-0--0-0-0--|-0-0-0--3-3-3-1-|-(1)-1-1---1---1---|-1---1---1-1-1--3-|
|-(0)-0-0--0-0-0--|-0-0-0----------|-------------------|----------------3-|
|
| Gtr II
| +E  E Q  E E Q    E E Q  E E E E   +E  E E E E E E E   E E E E E E E  E
|-----------------|----------------|-------------------|------------------|
|-----------------|----------------|-------------------|------------------|
|-----------------|--------5-5-5-3-|-(3)-3-3---3---3---|-3---3---3-3-3-10-|
|-(0)-0-0--0-0-0--|-0-0-0--5-5-5-3-|-(3)-3-3---3---3---|-3---3---3-3-3--x-|
|-(0)-0-0--0-0-0--|-0-0-0--3-3-3-1-|-(1)-1-1---1---1---|-1---1---1-1-1--8-|
|-(0)-0-0--0-0-0--|-0-0-0----------|-------------------|------------------|


                                               C/E
   +E   E  Q     E  E  Q       E  E  Q   E E E E
|---------------------------|--------------------|
|---------------------------|--------------------|
|---------------------------|--------------------|
|--(3)--3--3-----3--3--3----|--3--3--3---3-3-3-5-|
|--(3)--3--3-----3--3--3----|--3--3--3---3-3-3-3-|
|--(3)--3--3-----3--3--3----|--3--3--3---3-3-3-2-|
|
|  +E   E  E  E  E  E  E  E    E  E  E E E E E E
|---------------------------|--------------------|
|---------------------------|--------------------|
|-(10)-10-10-10s12-12-12-12s|=14-14-14-5-5-5-5-9-|
|--(x)--x--x--x--x--x--x--x-|--x--x--x-x-x-x-x-x-|
|--(8)--8--8--8s10-10-10-10s|=12-12-12-3-3-3-3-7-|
|---------------------------|--------------------|


                                  D5
  +E  E Q  E E Q    E E Q   E E E  E
|-----------------|------------------|
|-----------------|------------------|
|-----------------|------------------|
|-(5)-5-5--5-5-5--|-5-5-5---5-5-5--0-|
|-(3)-3-3--3-3-3--|-3-3-3---3-3-3--0-|
|-(2)-2-2--2-2-2--|-2-2-2---2-2-2--0-|
|
| +E  E Q  E E Q    E E E E E E E  E
|-----------------|------------------|
|-----------------|------------------|
|-(9)-9-9--9-9-9--|-9-9-9-9-9-9-9-10-|
|-(x)-x-x--x-x-x--|-x-x-x-x-x-x-x--x-|
|-(7)-7-7--7-7-7--|-7-7-7-7-7-7-7--8-|
|-----------------|------------------|


                                          C5       Bb5
   +E   E  Q     E  E  Q       E  E  Q     E  E  E E
|---------------------------|------------------------|
|---------------------------|------------------------|
|---------------------------|--------------5--5--5-3-|
|--(0)--0--0-----0--0--0----|--0--0--0-----5--5--5-3-|
|--(0)--0--0-----0--0--0----|--0--0--0-----3--3--3-1-|
|--(0)--0--0-----0--0--0----|--0--0--0---------------|
|
|  +E   E  E  E  E  E  E  E    E  E  E  E  E  E  E E
|---------------------------|------------------------|
|---------------------------|------------------------|
|-(10)-10-10-10-10-10-10-10s|=12-12-12-12s14-14-14-7-|
|--(x)--x--x--x--x--x--x--x-|--x--x--x--x--x--x--x-x-|
|--(8)--8--8--8--8--8--8--8s|=10-10-10-10s12-12-12-5-|
|---------------------------|------------------------|


                                    F5
  +E  E E E E E E E   E E E E E E E  E
|-------------------|------------------|
|-------------------|------------------|
|-(3)-3-3---3---3---|-3---3---3-3-3----|
|-(3)-3-3---3---3---|-3---3---3-3-3--3-|
|-(1)-1-1---1---1---|-1---1---1-1-1--3-|
|-------------------|----------------3-|
|
| +E  E E E E E E E   E E E E E E E  E
|-------------------|------------------|
|-------------------|------------------|
|-(7)-7-7---7---7---|-5---5---3-3-3-10-|
|-(x)-x-x---x---x---|-x---x---x-x-x--x-|
|-(5)-5-5---5---5---|-3---3---1-1-1--8-|
|-------------------|------------------|


                                                   C5
   +E   E  Q     E  E  Q       E  E  Q     E  E  E  E
|---------------------------|-------------------------|
|---------------------------|-------------------------|
|---------------------------|-----------------------5-|
|--(3)--3--3-----3--3--3----|--3--3--3-----3--3--3--5-|
|--(3)--3--3-----3--3--3----|--3--3--3-----3--3--3--3-|
|--(3)--3--3-----3--3--3----|--3--3--3-----3--3--3----|
|
|  +E   E  E  E  E  E  E  E    E  E  E  E  E  E  E  E
|---------------------------|-------------------------|
|---------------------------|-------------------------|
|-(10)-10-10-10-10-10-10-10s|=12-12-12-12s14-14-14-12-|
|--(x)--x--x--x--x--x--x--x-|--x--x--x--x--x--x--x--x-|
|--(8)--8--8--8--8--8--8--8s|=10-10-10-10s12-12-12-10-|
|---------------------------|-------------------------|


   +E   E  Q   E  E  Q       E  E  Q     E  E  Q
|-------------------------|-------------------------||
|-------------------------|-------------------------||
|--(5)--5--5---5--5--5----|--5--5--5-----5--5--5----||
|--(5)--5--5---5--5--5----|--5--5--5-----5--5--5----||
|--(3)--3--3---3--3--3----|--3--3--3-----3--3--3----||
|-------------------------|-------------------------||
|
|  +E   E  Q   E  E  E  E    E  E  E  E  E  E  E  E
|-------------------------|-------------------------||
|-------------------------|-------------------------||
|-(12)-12-12--12-12-12-12-|-12-12-12-12s14-14-14-14-||
|--(x)--x--x---x--x--x--x-|--x--x--x--x--x--x--x--x-||
|-(10)-10-10--10-10-10-10-|-10-10-10-10s12-12-12-12-||
|-------------------------|-------------------------||


 Odd Harmonized Bridge
  Slightly Slower Q=166
  D5  N.D5N.C.                 A5
  PM|   PM
  E E E E E E E E   E E E E Q   Q
|-----------------|-----------------||
|-----------------|-----------------||
|-------------5---|------------(9)--||
|---------7-------|---5-7-5----(7)--||
|-0-0-5-0---8---7-|-8-------8-------||
|-0-0---0---------|-----------------||
|
| PM|   PM                  ~
| E E E E E E E E   E E E E H
|-----------------|-----------------||
|-----------------|-----------------||
|-----------------|-----------------||
|---------5-7-8-7-|-----------------||
|-0-0-8-0---------|-8-5-7-4-5-------||
|-0-0---0---------|-----------------||


 Breakdown
  D5                    Bb               D5
  Gtrs I, II
  PM  PM  PM------|                      PM  PM  PM------|
  E E E E S S S S E E   E E E E E E Q    E E E E S S S S E E
|---------------------|----------------|---------------------|
|---------------------|----------------|---------------------|
|---------------------|-7---7---7---7--|---------------------|
|---------------------|-8---8---8---8--|---------------------|
|-0---0---0-0-0-0-0---|----------------|-0---0---0-0-0-0-0---|
|-0---0---0-0-0-0-0---|----------------|-0---0---0-0-0-0-0---|


  N.C.                       D5                    Bb
                             PM  PM  PM------|
  |-3--| |-3-| |-3-| |-3-|
  E E  E E E E E E E E E E   E E E E S S S S E E   E E E E E E Q
|--------------------------|---------------------|----------------|
|--------------------------|---------------------|----------------|
|--------------------------|---------------------|-7---7---7---7--|
|--------------------------|---------------------|-8---8---8---8--|
|-0h8h10-0h7h8-0h5h7-0h3h5-|-0---0---0-0-0-0-0---|----------------|
|--------------------------|-0---0---0-0-0-0-0---|----------------|


  D5                    N.C.
  PM  PM  PM------|
                        |-3--| |-3-| |-3-| |-3-|   |-3--| |-3-| |-3-| |-3-|
  E E E E S S S S E E   E E  E E E E E E E E E E   E E  E E E E E E E E E E
|---------------------|--------------------------|---------------------------||
|---------------------|--------------------------|---------------------------||
|---------------------|--------------------------|---------------------------||
|---------------------|--------------------------|---------------------------||
|-0---0---0-0-0-0-0---|-0h8h10-0h7h8-0h5h7-0h3h5-|-0h8h10-0h7h8-0h5h7-0h3h5--||
|-0---0---0-0-0-0-0---|--------------------------|---------------------------||


 Verse
  Original Tempo Q=172
  D5  Dm D5  Dm                    Bb5 FmBb5sFmBb5sus4/Bb
  PM|    PM|                       PM|   PM|   PM|
  E E  E E E  E  E  E   W          E E E E E E E E
|---------------------|----------|-----------------|
|------------10-10-10-|----------|-----------------|
|-----10-----10-10-10-|----------|-----9-----9-----|
|------0------0--0--0-|----------|-----8-----8-----|
|-0-0--0-0-0--0--0--0-|----------|-8-8-8-8-8-8-8-8-|
|-0-0--0-0-0--0--0--0-|----------|-8-8-8-8-8-8-8-8-|


  N.CBb5 N.CBb5 N.CBb5   N.CBb5 N.CBbN.C.  D5
  Gtr I
     PM|    PM|    PM--|    PM|    PM      PM|   PM|
   E E E  E E E  E E   E  E E E  E E  Q    E E E E E E E E
|--8-----------------|-----------8-------|-----------------|
|--------10----------|---10----------10--|-----------3-3-3-|
|---------------10---|-------------------|-----2-----2-2-2-|
|--------------------|-------------------|-----0-----0-0-0-|
|----8-8----8-8----8-|-8----8-8----8-----|-0-0-0-0-0-0-0-0-|
|----8-8----8-8----8-|-8----8-8----8-----|-0-0-0-0-0-0-0-0-|
|
| Gtr II
|    PM|    PM|    PM--|    PM|    PM      PM|   PM|
|  E E E  E E E  E E   E  E E E  E E  Q    E E E E E E E E
|--------------------|-------------------|-----------------|
|-10------------10---|----------10-------|-----------3-3-3-|
|--------10----------|---10----------10--|-----2-----2-2-2-|
|--------------------|-------------------|-----0-----0-0-0-|
|----8-8----8-8----8-|-8----8-8----8-----|-0-0-0-0-0-0-0-0-|
|----8-8----8-8----8-|-8----8-8----8-----|-0-0-0-0-0-0-0-0-|


  N.C.       Bb5 FmBb5sFmBb5susN.CBb5 N.CBb5 N.C.
             PM|   PM|   PM|      PM|    PM|
  W          E E E E E E E E    E E E  E E E  Q
|----------|-----------------|--8-------------8--|
|----------|-----------------|--------10---------|
|----------|-----9-----9-----|-------------------|
|----------|-----8-----8-----|-------------------|
|----------|-8-8-8-8-8-8-8-8-|----8-8----8-8-----|
|----------|-8-8-8-8-8-8-8-8-|----8-8----8-8-----|
|
|            PM|   PM|   PM|      PM|    PM|
| W          E E E E E E E E    E E E  E E E  Q
|----------|-----------------|-------------------|
|----------|-----------------|-10------------10--|
|----------|-----9-----9-----|--------10---------|
|----------|-----8-----8-----|-------------------|
|----------|-8-8-8-8-8-8-8-8-|----8-8----8-8-----|
|----------|-8-8-8-8-8-8-8-8-|----8-8----8-8-----|


  D5                                  N.C.                      D5
  Gtrs I, II
    PM|   PM|   PM--|   PM|   PM
  E E E E E E E E   E E E E E E E E   W          H     E   E  E E
|-----------------|-----------------|----------|------------------||
|-----------------|-----------------|----------|------------------||
|-----------------|-----------------|----------|------------------||
|-0-----0-----0---|---0-----0---0-0-|----------|----------------0-||
|-0-0-0-0-0-0-0-0-|-0-0-0-0-0-0-0-0-|----------|------<3>-<3>---0-||
|-0-0-0-0-0-0-0-0-|-0-0-0-0-0-0-0-0-|----------|----------------0-||


 Chorus
  D5                       C5    Bb5                                   F5
  Gtr I
  +E  E Q  E E Q    E E Q  E E E E   +E  E E E E E E E   E E E E E E E  E
|-----------------|----------------|-------------------|------------------|
|-----------------|----------------|-------------------|------------------|
|-----------------|--------5-5-5-3-|-(3)-3-3---3---3---|-3---3---3-3-3----|
|-(0)-0-0--0-0-0--|-0-0-0--5-5-5-3-|-(3)-3-3---3---3---|-3---3---3-3-3--3-|
|-(0)-0-0--0-0-0--|-0-0-0--3-3-3-1-|-(1)-1-1---1---1---|-1---1---1-1-1--3-|
|-(0)-0-0--0-0-0--|-0-0-0----------|-------------------|----------------3-|
|
| Gtr II
| +E  E Q  E E Q    E E Q  E E E E   +E  E E E E E E E   E E E E E E E  E
|-----------------|----------------|-------------------|------------------|
|-----------------|----------------|-------------------|------------------|
|-----------------|--------5-5-5-3-|-(3)-3-3---3---3---|-3---3---3-3-3-10-|
|-(0)-0-0--0-0-0--|-0-0-0--5-5-5-3-|-(3)-3-3---3---3---|-3---3---3-3-3--x-|
|-(0)-0-0--0-0-0--|-0-0-0--3-3-3-1-|-(1)-1-1---1---1---|-1---1---1-1-1--8-|
|-(0)-0-0--0-0-0--|-0-0-0----------|-------------------|------------------|


                                               C/E
   +E   E  Q     E  E  Q       E  E  Q   E E E E
|---------------------------|--------------------|
|---------------------------|--------------------|
|---------------------------|--------------------|
|--(3)--3--3-----3--3--3----|--3--3--3---3-3-3-5-|
|--(3)--3--3-----3--3--3----|--3--3--3---3-3-3-3-|
|--(3)--3--3-----3--3--3----|--3--3--3---3-3-3-2-|
|
|  +E   E  E  E  E  E  E  E    E  E  E E E E E E
|---------------------------|--------------------|
|---------------------------|--------------------|
|-(10)-10-10-10s12-12-12-12s|=14-14-14-5-5-5-5-9-|
|--(x)--x--x--x--x--x--x--x-|--x--x--x-x-x-x-x-x-|
|--(8)--8--8--8s10-10-10-10s|=12-12-12-3-3-3-3-7-|
|---------------------------|--------------------|


                                  D5
  +E  E Q  E E Q    E E Q   E E E  E
|-----------------|------------------|
|-----------------|------------------|
|-----------------|------------------|
|-(5)-5-5--5-5-5--|-5-5-5---5-5-5--0-|
|-(3)-3-3--3-3-3--|-3-3-3---3-3-3--0-|
|-(2)-2-2--2-2-2--|-2-2-2---2-2-2--0-|
|
| +E  E Q  E E Q    E E E E E E E  E
|-----------------|------------------|
|-----------------|------------------|
|-(9)-9-9--9-9-9--|-9-9-9-9-9-9-9-10-|
|-(x)-x-x--x-x-x--|-x-x-x-x-x-x-x--x-|
|-(7)-7-7--7-7-7--|-7-7-7-7-7-7-7--8-|
|-----------------|------------------|


                                          C5       Bb5
   +E   E  Q     E  E  Q       E  E  Q     E  E  E E
|---------------------------|------------------------|
|---------------------------|------------------------|
|---------------------------|--------------5--5--5-3-|
|--(0)--0--0-----0--0--0----|--0--0--0-----5--5--5-3-|
|--(0)--0--0-----0--0--0----|--0--0--0-----3--3--3-1-|
|--(0)--0--0-----0--0--0----|--0--0--0---------------|
|
|  +E   E  E  E  E  E  E  E    E  E  E  E  E  E  E E
|---------------------------|------------------------|
|---------------------------|------------------------|
|-(10)-10-10-10-10-10-10-10s|=12-12-12-12s14-14-14-7-|
|--(x)--x--x--x--x--x--x--x-|--x--x--x--x--x--x--x-x-|
|--(8)--8--8--8--8--8--8--8s|=10-10-10-10s12-12-12-5-|
|---------------------------|------------------------|


                                    F5
  +E  E E E E E E E   E E E E E E E  E
|-------------------|------------------|
|-------------------|------------------|
|-(3)-3-3---3---3---|-3---3---3-3-3----|
|-(3)-3-3---3---3---|-3---3---3-3-3--3-|
|-(1)-1-1---1---1---|-1---1---1-1-1--3-|
|-------------------|----------------3-|
|
| +E  E E E E E E E   E E E E E E E  E
|-------------------|------------------|
|-------------------|------------------|
|-(7)-7-7---7---7---|-5---5---3-3-3-10-|
|-(x)-x-x---x---x---|-x---x---x-x-x--x-|
|-(5)-5-5---5---5---|-3---3---1-1-1--8-|
|-------------------|------------------|


                                                   C5
   +E   E  Q     E  E  Q       E  E  Q     E  E  E  E
|---------------------------|-------------------------|
|---------------------------|-------------------------|
|---------------------------|-----------------------5-|
|--(3)--3--3-----3--3--3----|--3--3--3-----3--3--3--5-|
|--(3)--3--3-----3--3--3----|--3--3--3-----3--3--3--3-|
|--(3)--3--3-----3--3--3----|--3--3--3-----3--3--3----|
|
|  +E   E  E  E  E  E  E  E    E  E  E  E  E  E  E  E
|---------------------------|-------------------------|
|---------------------------|-------------------------|
|-(10)-10-10-10-10-10-10-10s|=12-12-12-12s14-14-14-12-|
|--(x)--x--x--x--x--x--x--x-|--x--x--x--x--x--x--x--x-|
|--(8)--8--8--8--8--8--8--8s|=10-10-10-10s12-12-12-10-|
|---------------------------|-------------------------|


                                                 D5
   +E   E  Q   E  E  Q       E  E  Q     E  E  E  E
|-------------------------|-------------------------||
|-------------------------|-------------------------||
|--(5)--5--5---5--5--5----|--5--5--5-----5--5--5----||
|--(5)--5--5---5--5--5----|--5--5--5-----5--5--5--0-||
|--(3)--3--3---3--3--3----|--3--3--3-----3--3--3--0-||
|-------------------------|-----------------------0-||
|
|  +E   E  Q   E  E  E  E    E  E  E  E  E  E  E  E
|-------------------------|-------------------------||
|-------------------------|-------------------------||
|-(12)-12-12--12-12-12-12s|=14-14-14-14-14-14-14-10-||
|--(x)--x--x---x--x--x--x-|--x--x--x--x--x--x--x--x-||
|-(10)-10-10--10-10-10-10s|=12-12-12-12-12-12-12--8-||
|-------------------------|-------------------------||


 Extended Chorus
  D5                                           Bb5
   +E   E  Q   E  E  Q     E  E  Q     E  E  E  E
|-----------------------|-------------------------|
|-----------------------|-------------------------|
|-----------------------|-----------------------3-|
|--(0)--0--0---0--0--0--|--0--0--0-----0--0--0--3-|
|--(0)--0--0---0--0--0--|--0--0--0-----0--0--0--1-|
|--(0)--0--0---0--0--0--|--0--0--0-----0--0--0----|
|
|  +E   E  Q   E  E  Q     E  E  E  E  E  E  E  E
|-----------------------|-------------------------|
|-----------------------|-------------------------|
|-(10)-10-10--10-10-10--|-10-10-10-10s14-14-14-10-|
|--(x)--x--x---x--x--x--|--x--x--x--x--x--x--x--x-|
|--(8)--8--8---8--8--8--|--8--8--8--8s12-12-12--8-|
|-----------------------|-------------------------|


                                               F5
   +E   E  Q   E  E  Q     E  E  Q     E  E  E  E
|-----------------------|-------------------------|
|-----------------------|-------------------------|
|--(3)--3--3---3--3--3--|--3--3--3-----3--3--3----|
|--(3)--3--3---3--3--3--|--3--3--3-----3--3--3--3-|
|--(1)--1--1---1--1--1--|--1--1--1-----1--1--1--3-|
|-----------------------|-----------------------3-|
|
|  +E   E  Q   E  E  Q     E  E  E  E  E  E  E  E
|-----------------------|-------------------------|
|-----------------------|-------------------------|
|-(10)-10-10--10-10-10--|-10-10-10-10s14-14-14-10-|
|--(x)--x--x---x--x--x--|--x--x--x--x--x--x--x--x-|
|--(8)--8--8---8--8--8--|--8--8--8--8s12-12-12--8-|
|-----------------------|-------------------------|


                                               C/E
   +E   E  Q   E  E  Q     E  E  Q     E  E  E E
|-----------------------|------------------------|
|-----------------------|------------------------|
|-----------------------|------------------------|
|--(3)--3--3---3--3--3--|--3--3--3-----3--3--3-5-|
|--(3)--3--3---3--3--3--|--3--3--3-----3--3--3-3-|
|--(3)--3--3---3--3--3--|--3--3--3-----3--3--3-2-|
|
|  +E   E  Q   E  E  Q     E  E  E  E  E  E  E E
|-----------------------|------------------------|
|-----------------------|------------------------|
|-(10)-10-10--10-10-10--|-10-10-10-10s14-14-14-9-|
|--(x)--x--x---x--x--x--|--x--x--x--x--x--x--x-x-|
|--(8)--8--8---8--8--8--|--8--8--8--8s12-12-12-7-|
|-----------------------|------------------------|


                                  D5
  +E  E Q  E E Q    E E Q   E E E  E
|-----------------|------------------|
|-----------------|------------------|
|-----------------|------------------|
|-(5)-5-5--5-5-5--|-5-5-5---5-5-5--0-|
|-(3)-3-3--3-3-3--|-3-3-3---3-3-3--0-|
|-(2)-2-2--2-2-2--|-2-2-2---2-2-2--0-|
|
| +E  E Q  E E Q    E E E E E E E  E
|-----------------|------------------|
|-----------------|------------------|
|-(9)-9-9--9-9-9--|-9-9-9-9-9-9-9-10-|
|-(x)-x-x--x-x-x--|-x-x-x-x-x-x-x--x-|
|-(7)-7-7--7-7-7--|-7-7-7-7-7-7-7--8-|
|-----------------|------------------|


                                               Bb5
   +E   E  Q   E  E  Q     E  E  Q     E  E  E  E
|-----------------------|-------------------------|
|-----------------------|-------------------------|
|-----------------------|-----------------------3-|
|--(0)--0--0---0--0--0--|--0--0--0-----0--0--0--3-|
|--(0)--0--0---0--0--0--|--0--0--0-----0--0--0--1-|
|--(0)--0--0---0--0--0--|--0--0--0-----0--0--0----|
|
|  +E   E  Q   E  E  Q     E  E  E  E  E  E  E  E
|-----------------------|-------------------------|
|-----------------------|-------------------------|
|-(10)-10-10--10-10-10--|-10-10-10-10s14-14-14-10-|
|--(x)--x--x---x--x--x--|--x--x--x--x--x--x--x--x-|
|--(8)--8--8---8--8--8--|--8--8--8--8s12-12-12--8-|
|-----------------------|-------------------------|


                                               F5
   +E   E  Q   E  E  Q     E  E  Q     E  E  E  E
|-----------------------|-------------------------|
|-----------------------|-------------------------|
|--(3)--3--3---3--3--3--|--3--3--3-----3--3--3----|
|--(3)--3--3---3--3--3--|--3--3--3-----3--3--3--3-|
|--(1)--1--1---1--1--1--|--1--1--1-----1--1--1--3-|
|-----------------------|-----------------------3-|
|
|  +E   E  Q   E  E  Q     E  E  E  E  E  E  E  E
|-----------------------|-------------------------|
|-----------------------|-------------------------|
|-(10)-10-10--10-10-10--|-10-10-10-10s14-14-14-10-|
|--(x)--x--x---x--x--x--|--x--x--x--x--x--x--x--x-|
|--(8)--8--8---8--8--8--|--8--8--8--8s12-12-12--8-|
|-----------------------|-------------------------|


                                               C5
   +E   E  Q   E  E  Q     E  E  Q     E  E  E  E
|-----------------------|-------------------------|
|-----------------------|-------------------------|
|-----------------------|-----------------------5-|
|--(3)--3--3---3--3--3--|--3--3--3-----3--3--3--5-|
|--(3)--3--3---3--3--3--|--3--3--3-----3--3--3--3-|
|--(3)--3--3---3--3--3--|--3--3--3-----3--3--3----|
|
|  +E   E  Q   E  E  Q     E  E  E  E  E  E  E  E
|-----------------------|-------------------------|
|-----------------------|-------------------------|
|-(10)-10-10--10-10-10--|-10-10-10-10s14-14-14-12-|
|--(x)--x--x---x--x--x--|--x--x--x--x--x--x--x--x-|
|--(8)--8--8---8--8--8--|--8--8--8--8s12-12-12-10-|
|-----------------------|-------------------------|


   +E   E  Q   E  E  E  E    E  E  E  E  E  E  E  E
|-------------------------|-------------------------||
|-------------------------|-------------------------||
|--(5)--5--5---5--5--5--5-|--5--5--5--5--5--5--5--5-||
|--(5)--5--5---5--5--5--5-|--5--5--5--5--5--5--5--5-||
|--(3)--3--3---3--3--3--3-|--3--3--3--3--3--3--3--3-||
|-------------------------|-------------------------||
|
|  +E   E  Q   E  E  E  E    E  E  E  E  E  E  E  E
|-------------------------|-------------------------||
|-------------------------|-------------------------||
|-(12)-12-12--12-12-12-12-|-12-12-12-12-12-12-12-12-||
|--(x)--x--x---x--x--x--x-|--x--x--x--x--x--x--x--x-||
|-(10)-10-10--10-10-10-10-|-10-10-10-10-10-10-10-10-||
|-------------------------|-------------------------||


 Outro Breakdown
  Slower Q=152
  D5
  Gtrs I, II
  PM----------------------------------------------------------------------|
  S S S S H    S S S S   H    E. E. E   S S S S H    S S S S   H    E. E. E
|----------------------|--------------|----------------------|--------------|
|----------------------|--------------|----------------------|--------------|
|----------------------|--------------|----------------------|--------------|
|----------------------|--------------|----------------------|--------------|
|-0-0-0-0-0----0-0-0-0-|-0----0--0--0-|-0-0-0-0-0----0-0-0-0-|-0----0--0--0-|
|-0-0-0-0-0----0-0-0-0-|-0----0--0--0-|-0-0-0-0-0----0-0-0-0-|-0----0--0--0-|


                                                                      Bb/D
  Gtr I
  PM-----------------------------------------------------------|      PM
  S S S S H    S S S S   H    E. E. E   S S S S H    S S S S   E Q.   H
|----------------------|--------------|----------------------|-------------|
|----------------------|--------------|----------------------|-------------|
|----------------------|--------------|----------------------|-------------|
|----------------------|--------------|----------------------|-------------|
|-0-0-0-0-0----0-0-0-0-|-0----0--0--0-|-0-0-0-0-0----0-0-0-0-|-0------1----|
|-0-0-0-0-0----0-0-0-0-|-0----0--0--0-|-0-0-0-0-0----0-0-0-0-|-0------0----|
|
| Gtr II
| PM-----------------------------------------------------------|      PM
| S S S S H    S S S S   H    E. E. E   S S S S H    S S S S   E Q.   H
|----------------------|--------------|----------------------|-------------|
|----------------------|--------------|----------------------|-------------|
|----------------------|--------------|----------------------|-------------|
|----------------------|--------------|----------------------|-------------|
|-0-0-0-0-0----0-0-0-0-|-0----0--0--0-|-0-0-0-0-0----0-0-0-0-|-0------0----|
|-0-0-0-0-0----0-0-0-0-|-0----0--0--0-|-0-0-0-0-0----0-0-0-0-|-0------1----|


  D5
  Gtrs I, II
  PM----------------------------------------------------------------------|
  S S S S H    S S S S   H    E. E. E   S S S S H    S S S S   H    E. E. E
|----------------------|--------------|----------------------|--------------|
|----------------------|--------------|----------------------|--------------|
|----------------------|--------------|----------------------|--------------|
|----------------------|--------------|----------------------|--------------|
|-0-0-0-0-0----0-0-0-0-|-0----0--0--0-|-0-0-0-0-0----0-0-0-0-|-0----0--0--0-|
|-0-0-0-0-0----0-0-0-0-|-0----0--0--0-|-0-0-0-0-0----0-0-0-0-|-0----0--0--0-|


  PM-----------------------------------------------------------|
  S S S S H    S S S S   H    E. E. E   S S S S H    S S S S   W
|----------------------|--------------|----------------------|------|
|----------------------|--------------|----------------------|------|
|----------------------|--------------|----------------------|------|
|----------------------|--------------|----------------------|------|
|-0-0-0-0-0----0-0-0-0-|-0----0--0--0-|-0-0-0-0-0----0-0-0-0-|-0----|
|-0-0-0-0-0----0-0-0-0-|-0----0--0--0-|-0-0-0-0-0----0-0-0-0-|-0----|


v*from here, slowly detune your 6th string until the end of the song*v

  \1_____________________________________
  S   S S S H    S S S S   H    E. E. E
|------------------------|--------------|
|------------------------|--------------|
|------------------------|--------------|
|------------------------|--------------|
|------------------------|--------------|
|-0---0-0-0-0----0-0-0-0-|-0----0--0--0-|


  \2_____________________________________
  S   S S S H    S S S S   H    E. E. E
|------------------------|--------------|
|------------------------|--------------|
|------------------------|--------------|
|------------------------|--------------|
|------------------------|--------------|
|-0---0-0-0-0----0-0-0-0-|-0----0--0--0-|


  \3______________________________________\4_____________________________
  PM---------------------------------------------------------------|
  S   S S S H    S S S S   H    E. E. E   S   S S S H    S S S S   W
|------------------------|--------------|------------------------|------|
|------------------------|--------------|------------------------|------|
|------------------------|--------------|------------------------|------|
|------------------------|--------------|------------------------|------|
|------------------------|--------------|------------------------|------|
|-0---0-0-0-0----0-0-0-0-|-0----0--0--0-|-0---0-0-0-0----0-0-0-0-|-0----|


  +W           +W
|------------|--------*|
|------------|--------*|
|------------|--------*|
|------------|--------*|
|------------|--------*|
|-(0)--------|-(0)----*|



Duration Legend
---------------
W - whole; H - half; Q - quarter; E - 8th; S - 16th; T - 32nd; X - 64th; a - acciaccatura
+ - note tied to previous; . - note dotted; .. - note double dotted
Uncapitalized letters represent notes that are staccato (1/2 duration)
Irregular groupings are notated above the duration line
Duration letters will always appear directly above the note/fret number it represents the
duration for.  Duration letters with no fret number below them represent rests.  Multi-
bar rests are notated in the form Wxn, where n is the number of bars to rest for.  Low
melody durations appear below the staff

Tablature Legend
----------------
 h   - hammer-on
 p   - pull-off
 b   - bend
 pb  - pre-bend
 r   - bend release (if no number after the r, then release immediately)
 /\  - slide into or out of (from/to "nowhere")
 s   - legato slide
 S   - shift slide
 - natural harmonic
[n]  - artificial harmonic
n(n) - tapped harmonic
 ~   - vibrato
 tr  - trill
 T   - tap
 TP  - trem. picking
 PM  - palm muting
\n/  - tremolo bar dip; n = amount to dip
 \n  - tremolo bar down
 n/  - tremolo bar up
/n\  - tremolo bar inverted dip
 =   - hold bend; also acts as connecting device for hammers/pulls
 <> - volume swell (louder/softer)
 x   - on rhythm slash represents muted slash
 o   - on rhythm slash represents single note slash

Misc Legend
-----------
 |  - bar
||  - double bar
||o - repeat start
o|| - repeat end
*|  - double bar (ending)
 :  - bar (freetime)
 $  - Segno
 &  - Coda
Tempo markers -  = BPM(8/16=s8/s16), where s8 = swing 8ths, s16 = swing 16ths





Comments


Popular A Skylit Drive tabs & chords
All It Takes For Your Dreams To Come True Bass Tabs
Past The Love The Memories Bass Tabs
See You Around Bass Tabs
Ability To Create A War Tabs
According To Columbus 2 Tabs
Ex Marks The Spot Tabs
Fuck The System Tabs
Knights Of The Round Tabs
See You Around Tabs
Hey Nightmare Where Did You Get Them Teeth Ukulele


Song lyrics



↑ Back to top | Tablatures and chords are parodies/interpretations of the original songs. You may use it for private study, scholarship, research or language learning purposes only
© 2014 AZChords.com Contact us | Privacy policy | DMCA | Add/correct tabs | Request tabs | Top 50 tabs