>
 >
According To Columbus 2

According To Columbus 2 Guitar Tabs

A Skylit Drive - According To Columbus 2 chords, tabs, tablatures, lyrics

Guitar lessons | Add/correct | Request | Top 50 tabs Artists:  A B C D E F G H I J K L M N O P Q R S T U V W X Y Z 0-9

According To Columbus 2 Guitar Tabs – A Skylit Drive

CD, Sheet music, Poster

Do you like According To Columbus 2? Share with your friends now
ChordsTabsTabs v2Tabs v3Ukulele
A SKYLIT DRIVE - ACCORDING TO COLUMBUS

I DONT THINK YOU KNOW... LALALA...  OK DROP D

INTRO
|----------------------------------------|
|--8-8-8-8--8-8--8--8-8-8-8-8-8----------|
|--X-X-X-X--X-X--X--X-X-X-X-X-X----------|
|--5-5-5-5--5-5--5--5-5-5-5-5-5----------|
|----------------------------------------|
|----------------------------------------|

VERSE
SAVE MEEE...
|-------------------------------------------------------------------------|
|-12-12-12-12-12-12-10-10-10-10-10-10------------15-15-15-15-15-15-15-----|
|-X--X--X--X--X--X--X--X--X--X--X--X-7-7-7-7-7-7-X--X--X--X--X--X--X------|
|-9--9--9--9--9--9--7--7--7--7--7--7-X-X-X-X-X-X-12-12-12-12-12-12-12-----|
|------------------------------------5-5-5-5-5-5--------------------------|
|-------------------------------------------------------------------------|

COLD FRONT...
|---------------------------------------|
|---------------------------------------|
|---------------------------------------|
|-7-0-9-0-10-0-9-0-7-0-9-0-10-0-9-0-----|  [x3]
|---------------------------------------|
|---------------------------------------|

|-------------------|
|-12-------10-------|
|-X--------X--------|
|-9--------7--------|
|-------------------|
|-------------------|

PRE-CHORUS
THE REST...
|---------------------10----15-15-14-14-10------------------| /
|------------------10---------------------------------------| /
|----11//12--9//12-------12----------------12---------------| /
|-9---------------------------------------------------------| /
|--10-------------------------------------------------------| /
|-----------------------------------------------------------| /
                                                              / [x2]
|---------------------10----15-15-14-14-10---14-15-14-15----| /
|------------------10---------------------------------------| /
|----11//12--9//12-------12---------------------------------| /
|-9---------------------------------------------------------| /
|--10-------------------------------------------------------| /
|-----------------------------------------------------------| /

CHORUS
MEET ME...         
|------------------------------------------------------------|
|-------------------12-12-12-12-12-12-12---------------------|
|-------------------X--X--X--X--X--X--X--12-12-12-12-12-12---|
|-5-5-5-5-5-5-5-5-5-9--9--9--9--9--9--9--X--X--X--X--X--X----|
|-5-5-5-5-5-5-5-5-5----------------------10-10-10-10-10-10---|
|-3-3-3-3-3-3-3-3-3------------------------------------------|

I'LL WAIT...
|-----------------------------------------------|
|-----------------------------------------------|
|-5--5--5--5--5--5--5--5--5--5--5--5--5--5------|
|-5--5--5--5--5--5--5--5--5--5--5--5--5--5------|
|-3--3--3--3--3--3--3--3--3--3--3--3--3--3------|
|-----------------------------------------------|

MEET ME...
|--------------------------------------------------------------------|
|----------------------------------12-12-12-12-12-12-8-8-8-8-8-8-----|
|----------11-11-11-11-12-12-12-12-X--X--X--X--X--X--X-X-X-X-X-X-----|
|-2---2----X--X--X--X--X--X--X--X--9--9--9--9--9--9--5-5-5-5-5-5-----|
|-2---2----9--9--9--9--10-10-10-10-----------------------------------|
|-0---0--------------------------------------------------------------|

I'LL WAIT FOR...
|------------------------------------------------------|
|---------------8-8-8-8-8-8-8--------------------------|
|---------------X-X-X-X-X-X-X-9-9-9-9-9--7-7-7-7-7-----|
|-5-5-5-5-5-5-5-5-5-5-5-5-5-5-X-X-X-X-X--X-X-X-X-X-----|
|-5-5-5-5-5-5-5---------------7-7-7-7-7--5-5-5-5-5-----|
|-3-3-3-3-3-3-3----------------------------------------|

|-------------------------------------------------------------------------|
|-12----------------------------------12----------------------------------|
|-X---12--12-12--11-11--12--11-11-12--X---12--12-12--11-11--12--11-11-12--|
|-9---X---X--X---X--X---X---X--X--X---9---X---X--X---X--X---X---X--X--X---|
|-----10--10-10--9--9---10--9--9--10------10--10-10--9--9---10--9--9--10--|
|-------------------------------------------------------------------------|

|-------------------------------------------|
|-15----------------------------------15----|
|-X---------11-11-11-11-12-12-12-12---X-----|
|-12--------X--X--X--X--X--X--X--X----12----|
|-----------9--9--9--9--10-10-10-10---------|
|-------------------------------------------|

|----------------------------------------|
|--8-8-8-8--8-8--8--8-8-8-8-8-8----------|
|--X-X-X-X--X-X--X--X-X-X-X-X-X----------|
|--5-5-5-5--5-5--5--5-5-5-5-5-5----------|
|----------------------------------------|
|----------------------------------------|

VERSE
SAVE MEEE...
|-------------------------------------------------------------------------|
|-12-12-12-12-12-12-10-10-10-10-10-10------------15-15-15-15-15-15-15-----|
|-X--X--X--X--X--X--X--X--X--X--X--X-7-7-7-7-7-7-X--X--X--X--X--X--X------|
|-9--9--9--9--9--9--7--7--7--7--7--7-X-X-X-X-X-X-12-12-12-12-12-12-12-----|
|------------------------------------5-5-5-5-5-5--------------------------|
|-------------------------------------------------------------------------|

COLD FRONT...
|---------------------------------------|
|---------------------------------------|
|---------------------------------------|
|-7-0-9-0-10-0-9-0-7-0-9-0-10-0-9-0-----|  [x3]
|---------------------------------------|
|---------------------------------------|

|-------------------|
|-12-------10-------|
|-X--------X--------|
|-9--------7--------|
|-------------------|
|-------------------|

PRE-CHORUS
THE REST...
|---------------------10----15-15-14-14-10------------------| /
|------------------10---------------------------------------| /
|----11//12--9//12-------12----------------12---------------| /
|-9---------------------------------------------------------| /
|--10-------------------------------------------------------| /
|-----------------------------------------------------------| /
                                                              / [x2]
|---------------------10----15-15-14-14-10---14-15-14-15----| /
|------------------10---------------------------------------| /
|----11//12--9//12-------12---------------------------------| /
|-9---------------------------------------------------------| /
|--10-------------------------------------------------------| /
|-----------------------------------------------------------| /

CHORUS
MEET ME...         
|------------------------------------------------------------|
|-------------------12-12-12-12-12-12-12---------------------|
|-------------------X--X--X--X--X--X--X--12-12-12-12-12-12---|
|-5-5-5-5-5-5-5-5-5-9--9--9--9--9--9--9--X--X--X--X--X--X----|
|-5-5-5-5-5-5-5-5-5----------------------10-10-10-10-10-10---|
|-3-3-3-3-3-3-3-3-3------------------------------------------|

I'LL WAIT...
|-----------------------------------------------|
|-----------------------------------------------|
|-5--5--5--5--5--5--5--5--5--5--5--5--5--5------|
|-5--5--5--5--5--5--5--5--5--5--5--5--5--5------|
|-3--3--3--3--3--3--3--3--3--3--3--3--3--3------|
|-----------------------------------------------|

MEET ME...
|--------------------------------------------------------------------|
|----------------------------------12-12-12-12-12-12-8-8-8-8-8-8-----|
|----------11-11-11-11-12-12-12-12-X--X--X--X--X--X--X-X-X-X-X-X-----|
|-2---2----X--X--X--X--X--X--X--X--9--9--9--9--9--9--5-5-5-5-5-5-----|
|-2---2----9--9--9--9--10-10-10-10-----------------------------------|
|-0---0--------------------------------------------------------------|

I'LL WAIT FOR...
|------------------------------------------------------|
|---------------8-8-8-8-8-8-8--------------------------|
|---------------X-X-X-X-X-X-X-9-9-9-9-9--7-7-7-7-7-----|
|-5-5-5-5-5-5-5-5-5-5-5-5-5-5-X-X-X-X-X--X-X-X-X-X-----|
|-5-5-5-5-5-5-5---------------7-7-7-7-7--5-5-5-5-5-----|
|-3-3-3-3-3-3-3----------------------------------------|

|-------------------------------------------------------------------------|
|-12----------------------------------12----------------------------------|
|-X---12--12-12--11-11--12--11-11-12--X---12--12-12--11-11--12--11-11-12--|
|-9---X---X--X---X--X---X---X--X--X---9---X---X--X---X--X---X---X--X--X---|
|-----10--10-10--9--9---10--9--9--10------10--10-10--9--9---10--9--9--10--|
|-------------------------------------------------------------------------|

|-------------------------------------------|
|-15----------------------------------15----|
|-X---------11-11-11-11-12-12-12-12---X-----|
|-12--------X--X--X--X--X--X--X--X----12----|
|-----------9--9--9--9--10-10-10-10---------|
|-------------------------------------------|

MEET ME...
|-----------------------------------------------------------------------------------------|
|-------------------------------------------------------12-12-12-12-12-12-8-8-8-8-8-8-----|
|-------------------------------------------------------X--X--X--X--X--X--X-X-X-X-X-X-----|   [x2]
|-----------------------------------------5-5-5-5-5-5-5-9--9--9--9--9--9--5-5-5-5-5-5-----|
|-2-2-2--2-2--2-2-2-2-2--2-2-2--2-2--2-2--5-5-5-5-5-5-5-----------------------------------|
|-0-0-0--0-0--0-0-0-0-0--0-0-0--0-0--0-0--3-3-3-3-3-3-3-----------------------------------|
  . . .  . .  . . . . .  . . .  . .   


MEET ME AT...
|-----------------------------------------------|
|-----------------------------------------------|
|-----------------------------------------------|
|-----------------------------------------------| [x2]
|-2-2-2--2-2--2-2-2-2-2--2-2-2--2-2--2-2--------|
|-0-0-0--0-0--0-0-0-0-0--0-0-0--0-0--0-0--------|
  . . .  . .  . . . . .  . . .  . .


OUTRO
I DONT THINK YOU...
|---------------------------------15--14--10--14------------15--14--10--14--14-15-15---|
|-8//7--8--12-12---8//7--8--12-12------------------------------------------------------|
|-X//X--X--X--X----X//X--X--X--X-----------------12-12-12-12---------------------------|  [x2]
|-5//4--5--9--9----5//4--5--9--9-------------------------------------------------------|
|--------------------------------------------------------------------------------------|
|--------------------------------------------------------------------------------------|


I DONT THINK YOU KNOW...
|----------|
|----------|
|----------|
|---2------|
|---2------|
|---0------|
    .


END, CHECK THE VIDEO!


THANX! FREAKY WI ^^





Comments


Popular A Skylit Drive tabs & chords
Past The Love The Memories Bass Tabs
Wires And The Concept Of Breathing 2 Bass Tabs
City On The Edge Of Forever Tabs
Eva The Carrier Tabs
Hey Nightmare, Where Did You Get Them Teeth? 1 Tabs
Knights Of The Round 1 Tabs
Past The Love The Memories Tabs
See You Around Tabs
Xo Skeleton Tabs
All It Takes For Your Dreams To Come True Ukulele


Song lyrics



↑ Back to top | Tablatures and chords are parodies/interpretations of the original songs. You may use it for private study, scholarship, research or language learning purposes only
© 2014 AZChords.com Contact us | Privacy policy | DMCA | Add/correct tabs | Request tabs | Top 50 tabs