>
 >
According To Columbus 1

According To Columbus 1 Guitar Tabs

A Skylit Drive - According To Columbus 1 chords, tabs, tablatures, lyrics

Guitar lessons | Add/correct | Request | Top 50 tabs Artists:  A B C D E F G H I J K L M N O P Q R S T U V W X Y Z 0-9

According To Columbus 1 Guitar Tabs – A Skylit Drive

CD, Sheet music, Poster

Do you like According To Columbus 1? Share with your friends now
ChordsTabsTabs v2Tabs v3Ukulele
|----------------------------------------|
|-A Skylit Drive - According To Columbus-|
|----------------------------------------|
|----------------------------------------|
 ****************************************
 ****************************************
 ************UPDATED*11/26/08************
 ****************************************
 ****************************************

I am pretty sure that this tab is atleast
95% correct. I've been playing this song
for a long time now. Please pay attention
to the times because this tab might get
a little confusing. 

questions, comments, requests?

Drop D
Guitar 1 - (D-A-D-G-B-e)
Guitar 2 - (D-A-D-G-B-e)

/  - slide
x? - find the strumming pattern yourself (sorry!)
h  - hammer on
p  - pull off
.  - palm mute
~  - let ring for a bit

Guitar 1 - Intro (0:00)
e|-----------------------------|
B|-----------------------------|
G|-1010-10101010-101010-101010-|
D|-x-x--x-x-x-x--x-x-x--x-x-x--|
A|-8-8--8-8-8-8--8-8-8--8-8-8--|
D|-----------------------------|

Guitar 1 - Verse (0:03)
e|-----------------------------|
B|-----------------------------|
G|-1010-10101010-101010-101010-|
D|-x-x--x-x-x-x--x-x-x--x-x-x--|
A|-8-8--8-8-8-8--8-8-8--8-8-8--|
D|-----------------------------|
Guitar 2 - Verse (0:03)
e|-----------------------------|
B|-----------------------------|
G|-1414-14141414-141414-141414-|
D|-x-x--x-x-x-x--x-x-x--x-x-x--|
A|-1212-12121212-121212-121212-|
D|-----------------------------|

Guitar 1 - Verse Continued (0:06)
e|------------------------------|
B|------------------------------|
G|-1414-141414-10-101010-101010-|
D|-x-x--x-x-x--x--x-x-x--x-x-x--|
A|-1212-121212-7--7-7-7--7-7-7--|
D|------------------------------|
Guitar 2 - Verse Continued (0:06)
e|-----------------------------|
B|-----------------------------|
G|-1212-12121212-121212-121212-|
D|-x-x--x-x-x-x--x-x-x--x-x-x--|
A|-1010-10101010-101010-101010-|
D|-----------------------------|

Guitar 1 - Verse Continued (0:09)
e|-----------------|
B|-----------------|
G|-33-3333-333-333-|
D|-xx-xxxx-xxx-xxx-|
A|-55-5555-555-555-|
D|-----------------|
Guitar 2 - Verse Continued (0:09)
e|-----------------------------|
B|-----------------------------|
G|-1010-10101010-101010-101010-|
D|-x-x--x-x-x-x--x-x-x--x-x-x--|
A|-7-7--7-7-7-7--7-7-7--7-7-7--|
D|-----------------------------|

Guitar 1 - Verse Continued (0:11)
e|-----------------------------|
B|-----------------------------|
G|-1010-10101010-101010-101010-|
D|-x-x--x-x-x-x--x-x-x--x-x-x--|
A|-8-8--8-8-8-8--8-8-8--8-8-8--|
D|-----------------------------|
Guitar 2 - Verse Continued (0:11)
e|-----------------------------|
B|-----------------------------|
G|-1717-17171717-171717-171717-|
D|-x-x--x-x-x-x--x-x-x--x-x-x--|
A|-1515-15151515-151515-151515-|
D|-----------------------------|

Guitar 1 - Pre Chorus (0:14)
e|-----------------|----|-------|
B|-----------------|----|-------|
G|-----------------|-x7-|-------|
D|-5p0-7p0-8p0-7p0-|----|-7~-5~-|
A|-----------------|----|-------|
D|-----------------|----|-------|
Guitar 2 - Pre Chorus (0:14)
e|---------------------------------------|
B|---------------------------------------|
G|-------14141414-12121212-10101010-9999-|
D|-8-----x-x-x-x--x-x-x-x--x-x-x-x--xxxx-|
A|-8-x16-12121212-10101010-8-8-8-8--7777-|
D|-8-------------------------------------|
Guitar 2 - Pre Chorus Continued (0:20)
e|------------------|----|-------|
B|------------------|----|-------|
G|------------------|-x3-|-------|
D|------------------|----|-------|
A|-7p0-8p0-10p0-8p0-|----|-8~-7~-|
D|------------------|----|-------|

Guitar 1 - Chorus (0:27)
e|------------------8~-----13-13-12-12-----------|   -/
B|-------------------------------------13-13-----|    /
G|-----9/10-------9----10~-------------------10~-|    /
D|-7--------10h12--------------------------------|    /
A|---8-------------------------------------------|    /
D|-----------------------------------------------|    /
Guitar 1 - Chorus Continued (0:34)                    / x2
e|------------------8~-----13-13-12-12-------12h13~-| /
B|-------------------------------------13-13--------| /
G|-----9/10-------9----10~--------------------------| /
D|-7--------10h12-----------------------------------| /
A|---8----------------------------------------------| /
D|--------------------------------------------------|-/
Guitar 2 - Chorus (0:27)
e|-------------------------------------|----|
B|-------------------------------------|----|
G|-------------------------------------|-x4-|
D|-000000000~-0-00-0000000000-8888888~-|----|
A|-000000000~-0-00-0000000000-8888888~-|----|
D|-000000000~-0-00-0000000000-8888888~-|----|
PM .........  . .. ..........

Guitar 1 - Chorus Part 2 (0:55)
e|-------------|
B|-------------|
G|-------------|
D|-3----/-8----|
A|-3-x?-/-8-x?-|
D|-3----/-8----|
Guitar 2 - Chorus Part 2 (1:05)
e|------------------------|
B|------------------------|
G|----------17---------17-|
D|------15---------15-----|
A|-13-13--13-----13--13---|
D|------------------------|
Guitar 1 - Chorus Part 2 Continued (1:08)
e|--------------------------|
B|--------------------------|
G|------9999/1010-----------|
D|-3----xxxx/x-x--8----3----|
A|-3-x?-7777/8-8--8-x?-3-x?-|
D|-3--------------8----3----|

Guitar 1 - Bridge (1:20)
e|---------|
B|---------|
G|---------|
D|-333~-00-|
A|-333~-00-|
D|-333~-00-|
PM ...  ..

Guitar 1 - Post Chorus (1:22)
e|-----------------------------|----|
B|-----------------------------|----|
G|-1414/10101010-101010-101010-|-x2-|
D|-x-x-/x-x-x-x--x-x-x--x-x-x--|----|
A|-1212/8-8-8-8--8-8-8--8-8-8--|----|
D|-----------------------------|----|
Guitar 2 - Post Chorus (1:22)
e|-----------------|----|
B|-----------------|----|
G|-----------------|-x2-|
D|-33-3333-333-333-|----|
A|-33-3333-333-333-|----|
D|-33-3333-333-333-|----|

Guitar 1 - Post Chorus Continued (1:28)
e|--------------------------------|
B|--------------------------------|
G|-17-171717-171717-14141414/1515-|
D|-x--x-x-x--x-x-x--x-x-x-x-/x-x--|
A|-15-151515-151515-12121212/1313-|
D|--------------------------------|
Guitar 2 - Post Chorus Continued (1:28)
e|----------------------------|
B|----------------------------|
G|-----------9999/1010--------|
D|-0-000-000-xxxx/x-x--8------|
A|-0-000-000-7777/8-8--8-x16?-|
D|-0-000-000-----------8------|

Reapeat once more starting from the intro, then go to the breakdown

Guitar 1 + 2 - Breakdown (3:11)
e|-----------------------------|
B|-----------------------------|
G|-----------------------------|
D|-000-00-00000000-000-00-000~-|
A|-000-00-00000000-000-00-000~-|
D|-000-00-00000000-000-00-000~-|
PM ... .. ........ ... .. ..

Guitar 1 - Breakdown Continued (3:18)
e|------|
B|------|
G|------|
D|-8----|
A|-8-x?-|
D|-8----|
Guitar 2 - Breakdown Continued (3:18)
e|-------|                       e|-----------|
B|-------|                       B|-----------|
G|-10----| Right before it goes  G|-7777-5555-|
D|-x--x?-| back to the palm mute D|-xxxx-xxxx-|
A|-8-----| part, the guitar does A|-5555-3333-|
D|-------| this at (3:23)        D|-----------|

Guitar 1 + 2 - Breakdown Continued (3:24)
e|-----------------------------|
B|-----------------------------|
G|-----------------------------|
D|-000-00-00000000-000-00-000~-|
A|-000-00-00000000-000-00-000~-|
D|-000-00-00000000-000-00-000~-|
PM ... .. ........ ... .. ..
Guitar 1 - Breakdown Continued (3:30)
e|---------|
B|---------|
G|---------|
D|---------|
A|-7---7/8-|
D|---0-----|
PM . .

Guitar 1 - Breakdown Continued (3:31)
e|------|
B|------|
G|------|
D|-8----|
A|-8-x?-|
D|-8----|
Guitar 2 - Breakdown Continued (3:31)
e|--------------------|
B|--------------------|
G|-10-------7777-5555-|
D|-x--x?----xxxx-xxxx-|
A|-8--------5555-3333-|
D|--------------------|

Guitar 1 + 2 - Breakdown Continued (3:37)
e|-----------------------------|----|
B|-----------------------------|----|
G|-----------------------------|-x2-|
D|-000-00-00000000-000-00-000~-|----|
A|-000-00-00000000-000-00-000~-|----|
D|-000-00-00000000-000-00-000~-|----|
PM ... .. ........ ... .. ..
Guitar 1 - Breakdown Continued (3:43)
e|---------|
B|---------|
G|---------|
D|---------|
A|-7---7/8-|
D|---0-----|
PM . .

Guitar 1 - Outro (3:50)
e|----------------------|----|
B|----------------------|----|
G|-10-/-9-/-7-/-9-/-14~-|-x2-|
D|-x--/-x-/-x-/-x-/-x---|----|
A|-8--/-7-/-5-/-7-/-12~-|----|
D|----------------------|----|
Guitar 2 - Outro (3:50)
e|------|
B|------|
G|------|
D|-0----|
A|-0-x?-|
D|-0----|

Guitar 1 - Outro Continued (3:57)
e|-13-13p12-12-----12-12-----13-13p12-12-----12-12-12h13-13~-|
B|------------13-13---------------------13-13----------------|
G|-----------------------10~---------------------------------|
D|-----------------------------------------------------------|
A|-----------------------------------------------------------|
D|-----------------------------------------------------------|

Repeat the whole outro again, then do this at (4:16)
e|----|
B|----|
G|----|
D|-0~-|
A|-0~-|
D|-0~-|
PM .

Please comment + rate :] thanks!





Comments


Popular A Skylit Drive tabs & chords
All It Takes For Your Dreams To Come True Bass Tabs
Ability To Create A War Tabs
Eris And Dysnomia Tabs
Fuck The System Tabs
Hey Nightmare, Where Did You Get Them Teeth? 2 Tabs
Knights Of The Round Tabs
Knights Of The Round 2 Tabs
Past The Love The Memories 1 Tabs
Wires And The Concept Of Breathing 1 Tabs
Xo Skeleton Tabs


Song lyrics



↑ Back to top | Tablatures and chords are parodies/interpretations of the original songs. You may use it for private study, scholarship, research or language learning purposes only
© 2014 AZChords.com Contact us | Privacy policy | DMCA | Add/correct tabs | Request tabs | Top 50 tabs