» » »

According To Columbus Tabs (ver.1)

Artists:  A B C D E F G H I J K L M N O P Q R S T U V W X Y Z # 

According To Columbus Tabs (ver.1)

A Skylit Drive
Rating:
5/5 (3 votes)

Hard to play? Try these video lessons and learn fast.
                ----------------------------------------------------------------------------
----------------------------------------------------------------------------




Guitar I - (D A D G B E) 'Rhythm'
Guitar II - (D A D G B E) 'Lead'




Intro/Verse: Guitar I
e|-------------------------------------------------------------------|
B|-------------------------------------------------------------------|
G|-10-10-10101010--101010--10--1010----14-14-141414-12-121212-121212-|
D|-------------------------------------------------------------------|
A|-8--8--8-8-8-8---8-8-8---8---8-8-----12-12-121212-10-101010-101010-|
D|-------------------------------------------------------------------|

e|---------------------------------------------------|
B|---------------------------------------------------|
G|-5-5-55-55-5-5555-17171717171717171717171717171717-|
D|---------------------------------------------------|
A|-3-3-33-33-3-3333-15151515151515151515151515151515-|
D|---------------------------------------------------|


Guitar II
e|----------------------------------------------------------------------|
B|----------------------------------------------------------------------|
G|----------------------------------------------------------------------|
D|-00-0000-000-000-88-8888-888-888-33-3333-333-333-1010-10101010-101010-|
A|-00-0000-000-000-88-8888-888-888-33-3333-333-333-1010-10101010-101010-|
D|-00-0000-000-000-88-8888-888-888-33-3333-333-333-1010-10101010-101010-|

(continued)
e|--------|
B|--------|
G|--------|
D|-101010-|
A|-101010-|
D|-101010-|



Guitar I           x7
e|-------------------|-------------|
B|-------------------|-------------|
G|-5p0-7p0-8p0-7p0---|-7~---5~-----|
D|-------------------|-------------|
A|-------------------|-------------|
D|-------------------|-------------|


Guitar II
e|-----------------------------------------------------------|
B|-----------------------------------------------------------|
G|-----------------------------------------------------------|
D|-00000000-00000000-0000000-00000000-1010101010101010-10-10-|
A|-00000000-00000000-0000000-00000000-1010101010101010-10-10-|
D|-00000000-00000000-0000000-00000000-1010101010101010-10-10-|



Pre-chorus:
Guitar II
e|----------------------------------------|
B|----------------------------------------|
G|----------------------------------------|
D|----------------------------------------|
A|-00000000~-0-00--000000-888888-0~-------|
D|-00000000~-0-00--000000-888888-0~-------|
PM .......   . ..  ...... ......


Guitar I
e|---------------------8-----13-13-12-12--------|
B|-5h6-5h6-5h6-5h6--------6---------------13-6--|
G|----------------------------------------------|
D|----------------------------------------------|
A|----------------------------------------------|
E|----------------------------------------------|


e|--------------------8-----13-13-12-12-------12-13~---|
B|-5h6-5h6-5h6-5h6------6-----------------13-----------|
G|-----------------------------------------------------|
D|-----------------------------------------------------|
A|-----------------------------------------------------|
E|-----------------------------------------------------|



Chorus:

Guitar I/II
e|------------------------------------------------------------|
B|------------------------------------------------------------|
G|----------------------------999-101010----------------------|
D|-33333333-88888888-33333333------------88888888-33333333----|
A|-33333333-88888888-33333333-777-8-8-8--88888888-33333333----|
D|-33333333-88888888-33333333------------88888888-33333333----|


Post-Chorus:

Guitar I/II
e|-------------------------------------------------------|
B|-------------------------------------------------------|
G|-1414-10-10-1414-10-10---17-17171717-141414-14-15--12~-|
D|-------------------------------------------------------|
A|-1212--8-8--1212--8-8----15-15151515-121212-12/13--10~-|
D|-------------------------------------------------------|


Repeat all of the above once over.



Breakdown:

Guitar I/II
e|-----------------------------------------------------|
B|-----------------------------------------------------|
G|-----------------------------------------------------|
D|--------------------------88888888-1010101010101010--|
A|-000-00-000000-000-00-000-88888888-1010101010101010--|x2
D|-000-00-000000-000-00-000-88888888-1010101010101010--|
PM ... .. ...... ... .. ...


e|-----------------------------------------------------|
B|-----------------------------------------------------|
G|-----------------------------------------------------|
D|-----------------------------------------------------|
A|-000-00-000000-000-00-000-000-00-0000000-000-00-000--|
D|-000-00-000000-000-00-000-000-00-0000000-000-00-000--|
PM ... .. ...... ... .. ... ... .. ....... ... .. ...





Bridge:

Guitar I plays a delayed riff here aswell. I'm still
trying to figure it out.
e|-----------------|
B|-----------------|
G|-----------------|
D|-0~---------0~---|
A|-0~---------0~---|x2
D|-0~---------0~---|



End on:
Guitar I/II
e|----|
B|----|
G|----|
D|-0~-|
A|-0~-|
D|-0~-|
PM .




| /  slide up
| \  slide down
| h  hammer-on
| p  pull-off
| ~  vibrato
| +  harmonic
| x  Mute note
============================================================================
            
Hard to play? Try these video lessons and learn fast. | Correct




comments powered by Disqus
↑ Back to top | Tablatures and chords are parodies/interpretations of the original songs. You may use it for private study, scholarship, research or language learning purposes only