» » »

A Perfect Circle, Weak And Powerless Bass tabs (ver.1)

Artists:  A B C D E F G H I J K L M N O P Q R S T U V W X Y Z # 

Weak And Powerless Bass tabs (ver.1)

A Perfect Circle Tabs
 Rating:
4/5 (4 votes)
Weak And Powerless lessons Tabs too difficult? Try these video lessons and learn fast
1
                A Perfect Circle
“Weak and Powerless”
Thirteenth Step


Hmm..no one else tabbed this, so if I did it wrong, don’t explode or anything..
The tuning is kinda weird but I’m 100% sure it’s right: low to high  Db F# B E
-xxeyelessxx-


INTRO
E  |----16--------------------------------------------------------------------------
B  |-14---14--14---14-14---14-14h15p14--14---14-14----14h12-12-14-14-14-14h15p14----
F# |-12------ 12---12-12---12-12--------12---12-12----12-12-12-12-12-12-12----------
Db |--------------------------------------------------------------------------------

E  |------16------------------------------------------------------------------------
B  |-14-----14--14---14-14------14-14------14-14-14-14-14------14----14----14-------
F# |-15---------15---15-15---15---------15-------------------0-----0-----0----------
Db |--------------------------------------------------------------------------------

E  |-----16------------------------------------------------------------------------
B  |-14------14---14-14------14-14------14-14-14-14-14-14h15p14---14-14----12h14---
F# |-12------12---12-12---12---------12--------------------------------------------
Db |-------------------------------------------------------------------------------

E  |-----16----------------------------------------------------------------------
B  |-14------14---14-14------14-14------14-14-14-14---/17-17-17------------------
F# |-15------15---15-15---15---------15------------------------------------------
Db |------------------------------------------------------------------------------


VERSE 1
I couldn’t hear any bass during the first verse. If there is, please leave corrections or something… 


CHORUS
E  |----------|------------------------------------------------------------
B  |---7h9-5--|------7(X12)---10(X12)--------------------------------------
F# |----------|------------------------7(X12)----5(X12)--------------------
Db |----------|------------------------------------------------------------

E  |-----------------------------------------------------------
B  |-----------------------------------------------------------
F# |---------------------7(X12)----5(X12)----------------------
Db |---5(X12)---8(X12)-----------------------------------------


VERSE 2 - listen for the timing...a little tricky
E  |---------------------------------------------------------------------------
B  |-----------------------------------------------------------0h2-------------
F# |--------7-7--------7------7-----7-----7-7-------7-----7-7------0h2---------
Db |---0-------0-0------0------0-----0--------0-0-----0-----------------3------

E  |---------------------------------------------------------------------------
B  |---------------------------------------------------------------------------
F# |--------7-7--------7------7----7-----7-7-------7-------7-7-----------------
Db |---0-------0-0------0------0----0--------0-0-----0--------0-0-5h7\3--------


CHORUS 2
E  |-------------------------------------------------------------------------
B  |-------------------------------------------------------------------------
F# |------------------------------5(X12)-----------------------------5(X12)--
Db |---5(X12)---8(X12)---0(X12)------------5(X12)---8(X12)---3(X12)----------


About 1:30
E  |--------|------------------------------------------------------------------
B  |--------|---7---7-7-7-7-7-7---7-7-7-7---7-7-7-7-7-7----7-7-----------------
F# |--------|------------------------------------------------------------------
Db |---0r---|--------------------------------------------------------continued…

E  |-------------------------------------------------------------------------
B  |-10---10-10-10-10-10-10---10-10-10-10---10-10-10-10-10-10----10-10-------
F# |-------------------------------------------------------------------------
Db |-------------------------------------------------------------------------  (X2)

Then…at 1:57
E  |--------------------------------------------------------------------------------
B  |---------------------------------------------------------------0h2--------------
F# |-----------5(X12)------------7-------------------5-5-5-5-5-5-------0h2----------
Db |---0(X12)------------0-0-0-------0-0-0-0-0-0----------------------------3-------

E  |--------------------------------------------------------------------------------
B  |--------------------------------------------------------------------------------
F# |------------5(X12)--------------7------------------5-5-5-5-5-5-5-5--------------
Db |----0(X12)-------------0-0-0--------0-0-0-0-0-0----------------------5h7-3------




  ENDING CHORUS
E  |--------------------------------------------------------------------------------
B  |--------------------------------------------------------------------------------
F# |-----------------------------5(X12)-----------------------------5(X12)----------
Db |--5(X12)---8(X12)---0(X12)------------5(X12)---8(X12)---3(X12)------------------

E  |--------------------------------------------------------------------------------
B  |--------------------------------------------------------------------------------
F# |------------------------------5(X12)-----------------------5(X12)---------------
Db |---5(X12)---8(X12)---3(X12)-------------8(X24)----3(X12)------------------------


OUTRO
-just play the intro until the song ends..
            
Submit corrections

comments powered by Disqus
↑ Back to top | A Perfect Circle Bass for Weak And Powerless. Lyrics for acoustic guitar and electric guitar. 1 Tablatures and chords are parodies/interpretations of the original songs. You may use it for private study, scholarship, research or language learning purposes only