» » »

A Perfect Circle, Judith Tabs (ver.1)

Artists:  A B C D E F G H I J K L M N O P Q R S T U V W X Y Z # 

Judith Tabs (ver.1)

A Perfect Circle Tabs
Rating:
0/5 (0 votes)
Judith lessons Tabs too difficult? Try these video lessons and learn fast
                                                     JUDITH
                         As recorded by A Perfect Circle
                        (From the 2000 Album MER DE NOMS)

Words and Music by Maynard James Keenan and Billy Howerdel

This is in 6/8, time if you care.

I have tabbed only the main guitars; there are many underneath
to make the song thicker.

Palm Mutes (PMs) shown by "." under number.
 / = legato slide up
 \ = legato slide down
 x = muted note
 h = hammer-on
 p = pull-off
 b = bend
 r = release bend
(#)= number of steps for a bend
 % = short (16th) rest

Tunings for all guitars: (low to high) B F# B E G# C#

 Intro          Gtrs I and II(elec. w/ dist.)   
|-----------|C#|---------------------------|----------------------|
|-----------|G#|o--------------------------|---------------------o|
|(drum fill)|E-|--7/9-9-9-x-x-7/9-10\9-7/9-|-7/9-9-9-9-/19-19-18--|
|-----------|B-|--x---x-x-x-x-x----x---x---|-x---x-x-x---x--x--x--|
|-----------|F#|o-5/7-7-7-x-x-5/7--8\7-5/7-|-5/7-7-7-7-/17-17-16-o|
|-----------|B-|----------x-x--------------|----------------------|
 
 Pre-Verse 
Gtr I                                            *slowly bend and hold
|---------------------------|-----------------------|--------------|
|o--------------------------|----------------------o|--------------|
|--7h9-9-9-9-9-7h9-10/9-7h9-|-7h9-9-9-9-7--0--0--0--|----------(½)-|
|------.-.-.-.--------------|-----.-.-.-.-----------|--------------|
|o--------------------------|----------------------o|-/10-/5h7-7b*-|
|---------------------------|-----------------------|--------------|
       
 Verse 1 [A]
Gtrs I and II
Riff A                     end riff A  1-3¯¯¯¦ 4-7¯¯¯¯¯¯¯¦  8¯¯¯¯¯¯¯¦
|------------------------------------||-------|-----------|----------|
|o----------------------------------o||-------|-----------|----------|
|-----------%------------------------||-------|-----------|---(1½)---|
|------------------------------------||-------|-5-5-5/(7)-|----------|
|o--0h2-2-2---2-0h2-3p2-0h2-2-2-2-0-o||-5-5-5-|-5-5-5/(7)-|----------|
|---0h2-2-2---2-0h2-3p2-0h2-2-2-2-0--||-5-5-5-|-5-5-5/(7)-|-5--5b-2--|
    . . . .   . . . . . . . . . . .     . . .

 Pre-Chorus [B]
Gtrs I and II
|----------------------------------------------------|
|o--------------------------------------------------o| play 3x
|--15--15-15-15-14-14--14-14-14--9--9-9-9/10-9-9--9--|
|--x---x--x--x--x--x---x--x--x---x--x-x-x----x-x--x--|
|o-13--13-13-13-12-12--12-12-12--7--7-7-7/8--7-7--7-o|
|----------------------------------------------------|

|----------------------------------------------------|
|----------------------------------------------------|
|-14--14-14-14-13--13-13-13-16--16-16-16/19-11--11-11|
|-x---x--x--x--x---x--x--x--x---x--x--x-----x---x--x-|
|-12--12-12-12-11--11-11-11-14--14-14-14/17-9---9--9-|
|----------------------------------------------------|

 Chorus [C]
Gtr I (w/ slide)
C#------------------17---17-17\-----|-----------------15---15-15\-----|
G#-17----17-(17)--------------------|-/15---15-(15)-------------------|
|Gtr II...Rhy. Fig. 1
|-----------------------------------|---------------------------------|
|-----------------------------------|---------------------------------|
|--12-12-12--12--12-12\9--9--9--9-9-|-9--9--9---9--9--9-9--9--9--9-9--|
|--x--x--x---x---x--x-----x--x--x-x-|-x--x--x---x--x--x-x--x--x--x-x--|
|--10-10-10--10--10-10\7--7--7--7-7-|-7--7--7---7--7--7-7--7--7--7-7--|
|-----------------------------------|---------------------------------|

C#----------------17---17-17\-------|-----------------15---15-15\-----|
G#-/17----17-(17)-------------------|-/15---15-(15)-------------------|
|
|-----------------------------------|---------------------------------|
|-----------------------------------|---------------------------------|
|--/12-12-12--12--12\9--9--9--9/10--|-9--9--9---9--9--9-9--9--9--9-9--|
|---x--x--x---x---x-----x--x--x-----|-x--x--x---x--x--x-x--x--x--x-x--|
|--/10-10-10--10--10\7--7--7--7/8---|-7--7--7---7--7--7-7--7--7--7-7--|
|-----------------------------------|---------------------------------|

C#----------------17---17-17\-------|-------------/19---------(19)/20-|
G#-/17----17-(17)-------------------|-/15-15-(15)---------------------|
|                                                      end rhy. fig. 1
|-----------------------------------|---------------------------------|
|-----------------------------------|---------------------------------|
|--/14-14---14------14\7---7------7-|---7--7--(7)-/16----16-----16\---|
|---x--x----x-------x------x------x-|---x--x-------x-----x------x-----|
|--/12-12---12------12\5---5------5-|---5--5--(5)-/14----14-----14\---|
|-----------------------------------|---------------------------------|

Gtr I
|---------------------------------|------------------------------|
|-/12-12-12-12-12/15-10---10-(10)-|---9-------9-9/10-------------|
|---------------------------------|------------------9---(9)\----|
|---------------------------------|------------------------------|
|---------------------------------|------------------------------|
|---------------------------------|------------------------------|
|
Gtr II
F#--5h7--7--7------5h7--7--7------|-5h7--7--7------5h7--7--7-----|
B---------------2-------------2---|------------2--------------2--|
    PM.  .  .   .  . .  .  .  .     . .  .  .  .   . .  .  .  .

 Interlude [D]
Gtr I (w/ slide)             1-5¯¯¯¯¯¯¯¯¯¯¯¯¯¯¯¯¯¯¦ 6¯¯¯¯¯¯¯¯¯¯¯¯¯¯¯¯¯¯¦
|--------------------------|-----------------------|--------------------|
|o-/15---15/14----14------o|-----------------------|--------------------|
|--/15------------14-------|/9--9-9-9/10--9--9-9-9-|9--9-9-9/10\9\7/9\7-|
|--------------------------|-----------------------|9--9-9-9/10\9\7/9\7-|
|o------------------------o|-----------------------|--------------------|
|--------------------------|-----------------------|
|Gtr II
|--------------------------|-----------------------|--------------------|
|o------------------------o|-----------------------|--------------------|
|--------------------------|-----------------------|--------------------|
|----------0---2---%---%---|--------0---2---%---%--|0h2p0----------%-%--|
|o-0h2p0-2---2------------o|0h2p2-2---2------------|------2-0-----------|
|----------------2---2---2-|--------------2---2---2|----------5-2-0-0-0-|

 Pre-Verse 2 [E]
Gtr II(w/ octave effect)
|-------------------------------------|-----------------------------|
|o-15h17-17-17--17-15h17-17/21\-15h17-|-15h=17-17-17-17-15---------o|
|-------------------------------------|--------------------16-16-16-|
|-------------------------------------|-----------------------------|
|o------------------------------------|----------------------------o|
|-0-----------------------------------|-----------------------------|

 Verse 2 [F]
Gtr I(w/o slide)
C#---------------------|----------------------|----------------------|
G#-14----15~~~~~~~~~~~~|~~~~~~----------------|-14----15------15/----|
|Gtr II(octaver off)
|----------------------|----------------------|----------------------|
|----------------------|----------------------|----------------------|
|----------------------|----------------------|----------------------|
|------------------0---|------------------0---|------------------0---|
|----------5h7p5-------|----------5h7p5-------|----------5h7p5-------|
|-2--2--2--------9---9-|-2--2--2--------9---9-|-2--2--2--------9---9-|
  PM .  .                .  .  .                .  .  .

|-----------------------------------|
|-/15---15-15-15br------------------|
|--------------(1)-14----14-14-14b--|
|-------------------------------(1)-|
|-----------------------------------|
|-----------------------------------|
|
|-----------------------------------|
|-----------------------------------|
|-----------------------------------|
|-------------7/9-------------------|
|-5--5--5--5--5/7--------------7/9--|
|------------------5--5--5--5--5/7--|
 PM  .  .  .       .  .  .  . 

 Gtrs I and II
|----------------------------|----------------------|
|o---------------------------|---------------------o|
|----------x-x---------------|-----------/19-19-18--|
|--7/9-9-9-x-x-7/9-10\9-7/9--|-7/9-9-9-9--x--x--x---|
|o-5/7-7-7-x-x-5/7--8\7-5/7--|-5/7-7-7-7-/17-17-16-o|
|----------x-x---------------|----------------------|

Gtrs I and II w/ Riff A 2x w/only endings 4 and 8¤
¤on this repeat only Gtr II plays it while Gtr I plays this fill:
|-----------------------|
|-----------------------|
|--------17b~~~-~~r--17-|
|-x---------------------|
|-x---------------------|
|-x--2------------------|

Go back to Pre-Chorus & Chorus, Parts [B] & [C] 
then continue to

 Solo [G]
Gtr I, Riff 1a                     end riff 1a
|------------------------|-------------------|
|/12-12-12-12/15-10-10/9-|-9--9--9/10--------|
|------------------------|------------9-(9)\-|
|------------------------|-------------------|
|------------------------|-------------------|
|------------------------|-------------------|
|Gtr II, Riff 1b                   end riff 1b
|------------------------|-------------------|
|------------------------|-------------------|
|-16-16-16-16/19-14-14\13|-13-13-13/14-9--9\-|
|--x--x--x--x-----x--x---|--x--x--x----x--x--|
|-14-14-14-14/17-12-12\11|-11-11-11/12-7--7\-|
|------------------------|-------------------|

Gtr I tabbed below; Gtr II w/ Rhythm Figure 1 {See part [C]}

G#-/17-17-17-17/15-15-15-15---|-/19---19/20--17-17|-17/15-15-15-15/20-|

G#-12-12-12-12-12/10-10-10-10-|-/17-17-17/15-15-15|-/19////////////24-|


Gtr I and II w/ Riff 1a and 1b, 1x, then

Gtr I w/slide                                       †Last meausre
C#-------17-17-17\-|--------15-15-15\| etc.        |--------15/19--/20-|
G#/17-17-----------|-/15-15----------|             |-/15-15------------|
|Gtr II w/ slide
|------------------|-----------------|------|------|--------|†---------|
|------------------|-----------------|------|------|--------|----------|
|-/12--------------|-/9--------------|-/12--|/14\9-|-/12-\9-|-/14--/16-|
|-/12--------------|-/9--------------|-/12--|/14\9-|-/12-\9-|-/14--/16-|
|------------------|-----------------|------|------|--------|----------|
|------------------|-----------------|------|------|--------|----------|

 Outro [H]
Gtrs I and II w/ Riff 1a and 1b 2x

Gtr I
G#--9--9-10-/12---*|
|Gtr II
|-----------------*|
|-------------0---*|
|-13-13-14----0---*|
|--x--x--x----2---*|
|-11-11-12----3---*|
|-----------------*|
            

comments powered by Disqus
↑ Back to top | A Perfect Circle Tabs for Judith. Lyrics for acoustic guitar and electric guitar. Tablatures and chords are parodies/interpretations of the original songs. You may use it for private study, scholarship, research or language learning purposes only