» » »

A Perfect Circle, Acoustic Sleeping Beauty Tabs

Artists:  A B C D E F G H I J K L M N O P Q R S T U V W X Y Z # 

Acoustic Sleeping Beauty Tabs

(ver. 1)
A Perfect Circle Tabs
 Rating:
4/5 (4 votes)
    Acoustic Sleeping Beauty lessons Tabs too difficult? Try these video lessons and learn fast

WWW.AZCHORDS.COM | A Perfect Circle Tabs - Sleeping Beauty Tabs (ver. 1)


                Sleeping Beauty.(acoustic live)
		       By A Perfect Circle


This is my first online tab eve,i am not expecting a good rating but 
I am interested to see how it dose. 


Tuning:C# F# B E G# C# (step and a half down)
Intro: start the first chord with a downstroke. these are just the 
chords listen to song to get teh pattern.
after the first set of chords you do another downstroke on the 006x54
(Intro) part 1        part 2
|-0--0--0--0--0-|----|-0--0--0--0--0--0----0--0--0--0-----
|-0--0--0--0--0-|----|-0--0--0--0--0--0----0--0--0--0-----
|-8\-6--8--9^-4-|----|-6--9--6--4--11-6-6^-9--6--4--11----
|-x--x--x--x--x-|(X2)|-x--x--x--x--x--x----x--x--x--x-----  
|-6\-4--6--7^-6-|THEN|-4--7--4--2--9--4----7--4--2--9-----
|-0--0--0--0--0-|----|-5--8--5--3--10-5----8--5--3--10----
 
|----------------------------------------------------------
|----------------------------------------------------------
|----------------------------------------------------------
|-------------------------------0---0---0---0--------------
|----11h9-11h9-11h9-11h9-11h9--4-4-4-4-2-2-2-2-------------
|----0----0----0----0----0---------------------------------
This is a chord like way you can play if you want to sing have 
a hard time picking while you sing
|-0----------------- 
|-0-----------------   
|-1-----------------
|-2-0-0-0-0-0-0-0-0-
|-2-4-4-4-4-2-2-2-2-
|-0-----------------


|-0-0-0-0-0-0-0-0-0--0--0--0-0-0---------------------------
|-0-0-0-0-0-0-0-0-0--0--0--0-0-0---------------------------
|-x-x-x/x-x/x-x-x/x--x--x-/x-x/x---------------------------
|-6-6-6/7-7/9-9-9/12-12-12/9-9/6-repeat--------------------
|-x-x-x/x-x/x-x-x/x--x--x-/x-x/x---------------------------
|-4-4-4/5-5/7-7-7/10-10-10/7-7/4---------------------------

when the middle part of the song comes up, play the intro part 2
 when the solo comes up play the intro part  palm muted and 
letting the top strings of the first chord ring out of the palm mute
towards the end of the solo. (listen to the song, you will hear it). 

Cheers, To one of the best live acoustic songs ever!
            
Submit corrections

↑ Back to top | A Perfect Circle Tabs for Sleeping Beauty. Lyrics for acoustic guitar and electric guitar. Tablatures and chords are parodies/interpretations of the original songs. You may use it for private study, scholarship, research or language learning purposes only