>
 >
Weak And Powerless 2

Weak And Powerless 2 Guitar Tabs

A Perfect  Circle - Weak And Powerless 2 chords, tabs, tablatures, lyrics

Guitar lessons | Add/correct | Request | Top 50 tabs Artists:  A B C D E F G H I J K L M N O P Q R S T U V W X Y Z 0-9

Weak And Powerless 2 Guitar Tabs – A Perfect Circle

CD, Sheet music, Poster

Do you like Weak And Powerless 2? Share with your friends now
Bass TabsBass Tabs v2Bass Tabs v3Bass Tabs v4ChordsChords v2TabsTabs v2Tabs v3Tabs v4UkuleleUkulele v2
Band- A Perfect Circle
Song- Weak And Powerless

Gtr I (C# F# B E G# C#) - '-'
Gtr II (C# F# B E G# C#) - '-'
Gtr III (C# F# B E G# C#) - '-'
Gtr IV (C# F# B E G# C#) - '-'
Gtr V (C# F# B E G# C#) - '-'

 Intro
  Q=80
  N.C.(Asus2)       (Cmaj7)
 3/4
  Gtr I
  W        W        W        W
|--------|--------|--------|------|
|--------|--------|--------|------|
|--------|--------|--------|------|
|--------|--------|--------|------|
|--------|--------|--------|------|
|--------|--------|--------|------|


  (Asus2)                             (Cmaj7)
                      <
  H     E  E    +Q    E  S  S  E  E    +Q    E  S  S  +S   S  E
|------10----|-------------10-10----|-------------10-(10)-------|
|---------12-|-(12)--12-12-------12-|-(12)--12-12---------12-12-|
|------------|----------------------|---------------------------|
|------------|----------------------|---------------------------|
|------------|----------------------|---------------------------|
|------------|----------------------|---------------------------|


                            1st Verse
                             N.C.(E5)
   +Q    Q   +S   S  S  S     S  S   S      S   S   S   S   S   S   S   S   S
|-------------------10----||-----------------------------------------------------|
|-(12)--12--(12)-12----12-||-----------------------------------------------------|
|-------------------------||-<5><5>-<5>----<5>-<5>-<5>-<5>-<5>-<5>-<5>-<5>-<5>---|
|-------------------------||-----------------------------------------------------|
|-------------------------||-----------------------------------------------------|
|-------------------------||-----------------------------------------------------|
|
|                            Gtr II
|                                                       PM-----------------|
|   W                         S  S   E          E       S   S  +S   S   S  +S
|-------------------------||-----------------------------------------------------|
|-------------------------||-----------------------------------------------------|
|-------------------------||---------9b9.5---------------------------------------|
|-------------------------||-----------------------------------------------------|
|-------------------------||--5h=7--------------7-------7---7--(7)--7---7--(7)b8-|
|-------------------------||-----------------------------------------------------|


   S   S   S   S   S  S   S  S   S   S   S    S
|------------------------------------------------|
|------------------------------------------------|
|-<5>-<5>-<5>-<5>-<5><5>-<5><5>-<5>-<5>-<5>--<5>-|
|------------------------------------------------|
|------------------------------------------------|
|------------------------------------------------|
|
|          PM-|                  PM-|
|  E       S   S   S  S   S  S   S   S   T T  S
|------------------------------------------------|
|------------------------------------------------|
|------------------------------------------------|
|------------------------------------------------|
|--7-------7---7---7s=5---5s=7---7---7---7h8p=7--|
|------------------------------------------------|


  Gtr III
   W                                                  W
|--------------------------------------------------|----------------------------------------------|
|--------------------------------------------------|----------------------------------------------|
|--------------------------------------------------|----------------------------------------------|
|--------------------------------------------------|----------------------------------------------|
|--------------------------------------------------|----------------------------------------------|
|--------------------------------------------------|----------------------------------------------|
|
| Gtr I
|  S   S   S   S   S   S   S   S   S  S     S   S     S  S   S   S   S   S   S  S   S  S   S   S
|--------------------------------------------------|----------------------------------------------|
|--------------------------------------------------|----------------------------------------------|
|-<5>-<5>-<5>-<5>-<5>-<5>-<5>-<5>-<5><5>---<5>-<5>-|-<5><5>-<5>-<5>-<5>-<5>-<5><5>-<5><5>-<5>-<5>-|
|--------------------------------------------------|----------------------------------------------|
|--------------------------------------------------|----------------------------------------------|
|--------------------------------------------------|----------------------------------------------|
|
| Gtr II
|                          PM-|                              PM---------|
|  E       E       E       S   S   S  S  a  E         S  S   S   S   S   S   S  S   S  S   E
|--------------------------------------------------|----------------------------------------------|
|--------------------------------------------------|----------------------------------------------|
|--------------------------------------------------|----------------------------------------------|
|----------9---------------------------------------|----------------------------------------------|
|--7---------------7-------7---7---5h=7--5s=7\-----|--5h=7---7---7---7---7---5h=7-----------------|
|--------------------------------------------------|--------------------------------5h=7---3------|


    <
    S    S    S    S    S    S    S    S    S   S    S    S
|-<12>-<12>-<12>-<12>-<12>-<12>-<12>-<12>-<12><12>-<12>-<12>-|
|------------------------------------------------------------|
|------------------------------------------------------------|
|------------------------------------------------------------|
|------------------------------------------------------------|
|------------------------------------------------------------|
|
|   S    S    S    S    S    S    S    S    S   S    S    S
|------------------------------------------------------------|
|------------------------------------------------------------|
|--<5>--<5>--<5>--<5>--<5>--<5>--<5>--<5>--<5>-<5>--<5>--<5>-|
|------------------------------------------------------------|
|------------------------------------------------------------|
|------------------------------------------------------------|
|
|                                 PM-|
|   E         E         E         S    S    S   S    E
|------------------------------------------------------------|
|------------------------------------------------------------|
|------------------------------------------------------------|
|------------------------------------------------------------|
|---7--------10---------7---------7----7----5h==7----7-------|
|------------------------------------------------------------|


  Gtrs I, III
    S   S    S    S    S    S    S     S    S    S    S   S
|-<12><12>-<12>-<12>-<12>-<12>-<12>--<12>-<12>-<12>-<12><12>-|
|------------------------------------------------------------|
|------------------------------------------------------------|
|------------------------------------------------------------|
|------------------------------------------------------------|
|------------------------------------------------------------|
|
|   S   S    S    S    S    S    S     S    S    S    S   S
|------------------------------------------------------------|
|------------------------------------------------------------|
|--<5>-<5>--<5>--<5>--<5>--<5>--<5>---<5>--<5>--<5>--<5>-<5>-|
|------------------------------------------------------------|
|------------------------------------------------------------|
|------------------------------------------------------------|
|
| Gtr II
|            PM-----------|                 PM-|
|   S   S    S    S    S    S    T T   S    S    S    S   S
|------------------------------------------------------------|
|------------------------------------------------------------|
|------------------------------------------------------------|
|------------------------------------------------------------|
|---5h==7----7----7----7----7----7s8s==7----7----7----5h==7--|
|------------------------------------------------------------|


    S    S    S    S    S    S    S    S    S   S    S    S      S   S    S    S    S    S    S   S    S   S    S    S
|-<12>-<12>-<12>-<12>-<12>-<12>-<12>-<12>-<12><12>-<12>-<12>-|-<12><12>-<12>-<12>-<12>-<12>-<12><12>-<12><12>-<12>-<12>-||
|------------------------------------------------------------|----------------------------------------------------------||
|------------------------------------------------------------|----------------------------------------------------------||
|------------------------------------------------------------|----------------------------------------------------------||
|------------------------------------------------------------|----------------------------------------------------------||
|------------------------------------------------------------|----------------------------------------------------------||
|
|   S    S    S    S    S    S    S    S    S   S    S    S      S   S    S    S    S    S    S   S    S   S    S    S
|------------------------------------------------------------|----------------------------------------------------------||
|------------------------------------------------------------|----------------------------------------------------------||
|--<5>--<5>--<5>--<5>--<5>--<5>--<5>--<5>--<5>-<5>--<5>--<5>-|--<5>-<5>--<5>--<5>--<5>--<5>--<5>-<5>--<5>-<5>--<5>--<5>-||
|------------------------------------------------------------|----------------------------------------------------------||
|------------------------------------------------------------|----------------------------------------------------------||
|------------------------------------------------------------|----------------------------------------------------------||
|
|                                 PM-|                                    PM-----------|
|   E         E         E         S    S    S   S    e           S   S    S    S    S    S    S   S    S   S    E
|------------------------------------------------------------|----------------------------------------------------------||
|------------------------------------------------------------|----------------------------------------------------------||
|-------------9----------------------------------------------|----------------------------------------------------------||
|------------------------------------------------------------|----------------------------------------------------------||
|---7-------------------7---------7----7----5h==7----7-------|---5h==7----7----7----7----7----5h==7---------------------||
|------------------------------------------------------------|-----------------------------------------5h==7----3-------||


 Chorus
  N.C.(A5)
  Gtr IV
  S S S S S S S S +S  S S S
|---------------------------|
|---------------------------|
|-----9---------------------|
|-7h9---7-7-5-7-7-(7)-5-----|
|-----------------------7p5-|
|---------------------------|
|
| Gtr I
| H.
|---------------------------|
|---------------------------|
|---------------------------|
|-7-------------------------|
|---------------------------|
|---------------------------|
|
| Gtr II
| H.
|---------------------------|
|---------------------------|
|---------------------------|
|---------------------------|
|---------------------------|
|-5-------------------------|


  (C5)                         (E5)
   E. S S S S S +S   S  S  S   S S S S S S S S +S  S S S
|----------------------------|---------------------------|
|----------------------------|---------------------------|
|----------------------------|-----9---------------------|
|-/7--5----------------------|-7h9---7-7-5-7-7-(7)-5-----|
|-------7-5-7h9-(9)-10-10-10-|-----------------------7p5-|
|----------------------------|---------------------------|
|
|           ~~
|  Q.       Q           S  S   S S Q       Q         E
|----------------------------|---------------------------|
|----------------------------|---------------------------|
|----------------------------|-----9---------------------|
|----------------------------|-7h9---------7---------5---|
|----------------------10-10-|---------------------------|
|--8--------7----------------|---------------------------|
|
|  H.                          H.
|----------------------------|---------------------------|
|----------------------------|---------------------------|
|----------------------------|---------------------------|
|----------------------------|---------------------------|
|----------------------------|---------------------------|
|--8-------------------------|-0-------------------------|


  (D5)                 (A5)                        (C5)
   E. S S S  S S E E   S S S S S S S S +S  S S S    E. S S S S S +S   S  E
|--------------------|---------------------------|----------------------------|
|--------------------|---------------------------|----------------------------|
|--------------------|-----9---------------------|----------------------------|
|-/7--5-----/9-x-7-5-|-7h9---7-7-5-7-7-(7)-5-----|-/7--5----------------------|
|-------7-5----------|-----------------------7p5-|-------7-5-7h9-(9)-10-10----|
|--------------------|---------------------------|----------------------------|
|
| +Q    H              Q       H                    Q.       Q           S S
|--------------------|---------------------------|----------------------------|
|--------------------|---------------------------|----------------------------|
|--------------------|---------------------------|----------------------------|
|-(5)----------------|---------7-----------------|--7--------7-----------5-5--|
|-------7------------|---------------------------|----------------------------|
|--------------------|---------------------------|----------------------------|
|
|  H.                  H.                           H.
|--------------------|---------------------------|----------------------------|
|--------------------|---------------------------|----------------------------|
|--------------------|---------------------------|----------------------------|
|--------------------|---------------------------|----------------------------|
|--5-----------------|---------------------------|----------------------------|
|--------------------|-5-------------------------|--8-------------------------|


  (E5)                          (D5)
  S S S S  S  S S S +S  S S S    E. S S S  e E  E
|-----------------------------|-------------------||
|-----------------------------|-------------------||
|-----9-----------------------|-------------------||
|-7h9---7--7--5-7-7-(7)-5-----|-/7--5-------------||
|-------------------------7p5-|-------7-5-/9-7-/9-||
|-----------------------------|-------------------||
|
| S E   S +H                     H.
|-----------------------------|-------------------||
|-----------------------------|-------------------||
|-------9-(9)-----------------|-------------------||
|-7h9-------------------------|--7----------------||
|-----------------------------|-------------------||
|-----------------------------|-------------------||
|
| H.                             H.
|-----------------------------|-------------------||
|-----------------------------|-------------------||
|-----------------------------|-------------------||
|-----------------------------|-------------------||
|-----------------------------|--5----------------||
|-0---------------------------|-------------------||


  N.C.(E5)
   >
   H                                  Q
|------------------------------------------------------|
|------------------------------------------------------|
|------------------------------------------------------|
|------------------------------------------------------|
|--7---------------------------------------------------|
|------------------------------------------------------|
|
|  S   S   S      S   S   S   S   S   S   S   S   S
|------------------------------------------------------|
|------------------------------------------------------|
|-<5>-<5>-<5>----<5>-<5>-<5>-<5>-<5>-<5>-<5>-<5>-<5>---|
|------------------------------------------------------|
|------------------------------------------------------|
|------------------------------------------------------|
|
|                             PM-----------------|
|  E       E          E       S   S  +S   S   S  +S
|------------------------------------------------------|
|------------------------------------------------------|
|----------9b9.5---------------------------------------|
|------------------------------------------------------|
|--7------------------7-------7---7--(7)--7---7--(7)b8-|
|------------------------------------------------------|


  Gtr I
   S   S   S   S   S  S   S  S   S   S   S  S
|----------------------------------------------|
|----------------------------------------------|
|-<5>-<5>-<5>-<5>-<5><5>-<5><5>-<5>-<5>-<5><5>-|
|----------------------------------------------|
|----------------------------------------------|
|----------------------------------------------|
|
| Gtr II
|          PM-|                  PM-|
|  E       S   S   S  S   S  S   S   S   S  S
|----------------------------------------------|
|----------------------------------------------|
|----------------------------------------------|
|----------------------------------------------|
|--7-------7---7---7s=5---5s=7---7---7---7h=8--|
|----------------------------------------------|


   S   S   S   S   S   S   S   S   S   S   S    S     S   S   S   S   S  S   S  S   S  S   S   S
|--------------------------------------------------|----------------------------------------------||
|--------------------------------------------------|----------------------------------------------||
|-<5>-<5>-<5>-<5>-<5>-<5>-<5>-<5>-<5>-<5>-<5>--<5>-|-<5>-<5>-<5>-<5>-<5><5>-<5><5>-<5><5>-<5>-<5>-||
|--------------------------------------------------|----------------------------------------------||
|--------------------------------------------------|----------------------------------------------||
|--------------------------------------------------|----------------------------------------------||
|
|                          PM---------|                       PM-|
|  E       E       E       S   S  +S   S   T T  S     E       S   S   S  S   S  S   S  S   E
|--------------------------------------------------|----------------------------------------------||
|--------------------------------------------------|----------------------------------------------||
|----------9---------------------------------------|----------------------------------------------||
|--------------------------------------------------|----------------------------------------------||
|--7---------------7-------7---7--(7)--7---7h8p=7--|--7-------7---7---7s=5---5h=7-----------------||
|--------------------------------------------------|--------------------------------5h=7---3------||


 2nd Verse
  N.C.(E5)
  Gtr III
    <
    S    S    S    S    S    S    S    S    S   S    S    S
|-<12>-<12>-<12>-<12>-<12>-<12>-<12>-<12>-<12><12>-<12>-<12>-|
|------------------------------------------------------------|
|------------------------------------------------------------|
|------------------------------------------------------------|
|------------------------------------------------------------|
|------------------------------------------------------------|
|
| Gtr I
|   S    S    S    S    S    S    S    S    S   S    S    S
|------------------------------------------------------------|
|------------------------------------------------------------|
|--<5>--<5>--<5>--<5>--<5>--<5>--<5>--<5>--<5>-<5>--<5>--<5>-|
|------------------------------------------------------------|
|------------------------------------------------------------|
|------------------------------------------------------------|
|
| Gtr II
|             PM-|                PM-|
|   E         S    S    E         S    S    S   S    E
|------------------------------------------------------------|
|------------------------------------------------------------|
|------------------------------------------------------------|
|------------------------------------------------------------|
|---7---------9---10----7---------7----7----5s==7----7\------|
|------------------------------------------------------------|


    S   S    S    S    S    S    S    S    S     S    S    S      S    S    S    S    S    S    S    S    S   S    S    S
|-<12><12>-<12>-<12>-<12>-<12>-<12>-<12>-<12>--<12>-<12>-<12>-|-<12>-<12>-<12>-<12>-<12>-<12>-<12>-<12>-<12><12>-<12>-<12>-|
|-------------------------------------------------------------|------------------------------------------------------------|
|-------------------------------------------------------------|------------------------------------------------------------|
|-------------------------------------------------------------|------------------------------------------------------------|
|-------------------------------------------------------------|------------------------------------------------------------|
|-------------------------------------------------------------|------------------------------------------------------------|
|
|   S   S    S    S    S    S    S    S    S     S    S    S      S    S    S    S    S    S    S    S    S   S    S    S
|-------------------------------------------------------------|------------------------------------------------------------|
|-------------------------------------------------------------|------------------------------------------------------------|
|--<5>-<5>--<5>--<5>--<5>--<5>--<5>--<5>--<5>---<5>--<5>--<5>-|--<5>--<5>--<5>--<5>--<5>--<5>--<5>--<5>--<5>-<5>--<5>--<5>-|
|-------------------------------------------------------------|------------------------------------------------------------|
|-------------------------------------------------------------|------------------------------------------------------------|
|-------------------------------------------------------------|------------------------------------------------------------|
|
|            PM---------------------|                 PM-|                  PM-|                PM-|
|   S   S    S    S    S    S    S    S    T T   S    S    S      E         S    S    E         S    S    S   S    E
|-------------------------------------------------------------|------------------------------------------------------------|
|-------------------------------------------------------------|------------------------------------------------------------|
|-------------------------------------------------------------|------------------------------------------------------------|
|-------------------------------------------------------------|------------------------------------------------------------|
|---5h==7----7----7----7----7----7----7----7h8p==7----7----7--|---7---------9---10----7---------7----7----5s==7----7\------|
|-------------------------------------------------------------|------------------------------------------------------------|


  Gtr III
    S   S    S    S    S    S    S   S    S   S    S    S
|-<12><12>-<12>-<12>-<12>-<12>-<12><12>-<12><12>-<12>-<12>-||
|----------------------------------------------------------||
|----------------------------------------------------------||
|----------------------------------------------------------||
|----------------------------------------------------------||
|----------------------------------------------------------||
|
| Gtr I
|   S   S    S    S    S    S    S   S    S   S    S    S
|----------------------------------------------------------||
|----------------------------------------------------------||
|--<5>-<5>--<5>--<5>--<5>--<5>--<5>-<5>--<5>-<5>--<5>--<5>-||
|----------------------------------------------------------||
|----------------------------------------------------------||
|----------------------------------------------------------||
|
|            PM-----------|
|   S   S    S    S    S    S    S   S    S   S    E
|----------------------------------------------------------||
|----------------------------------------------------------||
|----------------------------------------------------------||
|----------------------------------------------------------||
|---5h==7----7----7----7----7----5h==7---------------------||
|-----------------------------------------5h==7----3-------||


 Chorus
  N.C.(A5)                      (C5)
  Gtr IV
  S S S S  S  S S S +S  S S S    E. S S S S S +S   S  E
|-----------------------------|----------------------------|
|-----------------------------|----------------------------|
|-----9-----------------------|----------------------------|
|-7h9---7--7--5-7-7-(7)-5-----|-/7--5----------------------|
|-------------------------7p5-|-------7-5-7h9-(9)-10-10----|
|-----------------------------|----------------------------|
|
| Gtr I
| S S E   +E    E   +E    E      Q    E   Q          +S  S
|-----------------------------|----------------------------|
|-----------------------------|----------------------------|
|-----9---(9)-----------------|----------------------------|
|-7h9-----------7---(7)---5---|--9----7--------------------|
|-----------------------------|--7----5---2----------(2)-x-|
|-----------------------------|-----------0----------(0)-x-|
|
| H.                             H.
|-----------------------------|----------------------------|
|-----------------------------|----------------------------|
|-----------------------------|----------------------------|
|-----------------------------|----------------------------|
|-----------------------------|----------------------------|
|-5---------------------------|--8-------------------------|


  (E5)                          (D5)
  S S S S  S  S S S +S  S S S    E. S S S  e E  E
|-----------------------------|---------------------|
|-----------------------------|---------------------|
|-----9-----------------------|---------------------|
|-7h9---7--7--5-7-7-(7)-5-----|-/7--5-----/9-7--5---|
|-------------------------7p5-|-------7-5-----------|
|-----------------------------|---------------------|
|
| S S E   +Q        +E    E      Q.        Q    S S
|-----------------------------|---------------------|
|-----------------------------|---------------------|
|-----9---(9)-------(9)-------|---------------------|
|-7h9-------------------------|--7---------5--------|
|-------------------------7---|----------------/x---|
|-----------------------------|----------------/x---|
|
| H.                             H.
|-----------------------------|---------------------|
|-----------------------------|---------------------|
|-----------------------------|---------------------|
|-----------------------------|---------------------|
|-----------------------------|--5------------------|
|-0---------------------------|---------------------|


  (A5)
  S S S S  S  S S S +S  S S S
|------------------------------|
|------------------------------|
|-----9------------------------|
|-7h9---7--7--5-7-7-(7)-5------|
|-------------------------7p5--|
|------------------------------|
|
| S S E   +Q        +E    E
|------------------------------|
|------------------------------|
|-----9---(9)-------(9)---7----|
|-7h9---------------------5----|
|------------------------------|
|------------------------------|
|
| H.
|------------------------------|
|------------------------------|
|------------------------------|
|------------------------------|
|------------------------------|
|-5----------------------------|


  (C5)
   E. S S S S S +S   S  S  S
|----------------------------|
|----------------------------|
|----------------------------|
|-/7--5----------------------|
|-------7-5-7-9-(9)-10-10-10-|
|----------------------------|
|
| +Q    Q       +S   S  S  S
|----------------------------|
|----------------------------|
|-(7)----------------------9-|
|-(5)---9-------(9)-----9----|
|-------7-------(7)--7-------|
|----------------------------|
|
|  H.
|----------------------------|
|----------------------------|
|----------------------------|
|----------------------------|
|----------------------------|
|--8-------------------------|


  (G5)                          (D5)
  S S S S  S  S S S +S  S S S    E. S S S  E E  E
|-----------------------------|-------------------||
|-----------------------------|-------------------||
|-----9-----------------------|-------------------||
|-7h9---7--7--5-7-7-(7)-5-----|-/7--5-------------||
|-------------------------7p5-|-------7-5-/9-7-/9-||
|-----------------------------|-------------------||
|
| S S E   +Q        +E    E      Q.        E E  E
|-----------------------------|-------------------||
|-----------------------------|-------------------||
|-----9---(9)-------(9)-------|-------------------||
|-7h9---------------------5---|--7----------------||
|-----------------------------|------------9-7--9-||
|-----------------------------|-------------------||
|
| H.                             H.
|-----------------------------|-------------------||
|-----------------------------|-------------------||
|-----------------------------|-------------------||
|-----------------------------|-------------------||
|-----------------------------|--5----------------||
|-3---------------------------|-------------------||


 Bridge
  N.C.(E5)             Emadd9
             >          >
  H.        +H.         W                   W
|---------|----------|-------------------|--------|
|---------|----------|-------------------|--------|
|---------|----------|-------------------|--------|
|---------|----------|-------------------|--------|
|-7-------|-(7)------|-------------------|--------|
|---------|----------|-------------------|--------|
|
| H.        +H.         E  E +E   E +Q     +H.
|---------|----------|-----------^0-(0)--|-(0)----|
|---------|----------|-----------^0-(0)--|-(0)----|
|---------|----------|-----------^0-(0)--|-(0)----|
|-9-------|-(9)------|-----------^4-(4)--|-(4)----|
|---------|----------|-----2-(2)---------|--------|
|---------|----------|--0----------------|--------|
|
|                       >
| H.        +H.        +H.                  W
|---------|----------|-------------------|--------|
|---------|----------|-------------------|--------|
|---------|----------|-------------------|--------|
|---------|----------|-------------------|--------|
|---------|----------|-------------------|--------|
|-0-------|-(0)------|-(0)---------------|--------|


                        Cadd9
  Gtr I
  +H.        +H.         E S S E S S +S  S E   E  S  S S S E S S S +S
|-(0)------|-(0)------|------------0-(0)-----|---(0)-0-0-0-0-0-0-0-(0)---|
|-(0)------|-(0)------|-^3-3-3-3-3-3-(3)-3-3-|-3--3--3-3-3-3-3-3-3-(3)/--|
|-(0)------|-(0)------|-^0-0-0-0-0-0-(0)-0-0-|-0--0--0-0-0-0-0-0-0-(0)---|
|-(4)------|-(4)------|-^2-2-2-2-2-2-(2)-2-2-|-2--2--2-2-2-2-2-2-2-(2)/--|
|----------|----------|-^3-3-3-3-3-3-(3)-3-3-|-3--3--3-3-3-3-3-3-3-(3)/--|
|----------|----------|----------------------|---------------------------|


    Emadd11/A
  E S S E S S +S  S S S   E S S E S S +S  S S S
|-0---0-----0-(0)-------|-0-0-------0-(0)-0-0-0-|
|-8-8-8-8-8-8-(8)-8-8-8-|-8-8-8-8-8-8-(8)-8-8-8-|
|-9-9-9-9-9-9-(9)-9-9-9-|-9-9-9-9-9-9-(9)-9-9-9-|
|-7-7---7-7-7-(7)-7-7-7-|-7-7-7-7-7-7-(7)-7-7-7-|
|-0-0---0-0-0-(0)-0-0-0-|-0-0-0-0-0-0-(0)-0-0-0-|
|-----------------------|-----------------------|


  G/C                          G5/C
   E  S  S  E  S  S  +S   S  S  S
|----------------------------------|
|-12-12-12-12-12-12-(12)-12-12-15--|
|-12-12-12-12-12-12-(12)-12-12-12--|
|-10-10-10-10-10-10-(10)-10-10-10--|
|----------------------------------|
|----------------------------------|


                                    Interlude
              G/C                    N.C.(E5)
   E  S  S  S  S  S  S  +S   S  E     E  S S +S  S  E  S E S
|---------------------------------||---------------12--------|
|-15-15-15-15-12-12-12-(12)-12-12-||------------------10---0-|
|-12-12-12-12-12-12-12-(12)-12-12-||-<5>---0-(0)---------0---|
|-10-10-10-10-10-10-10-(10)-10-10-||-------------------------|
|---------------------------------||-----7-------7-----------|
|---------------------------------||-------------------------|


  (A5)                     (E5)
  E S S +S   S  E  S E S   E S S +S  S  E  S E S
|--------------12--------|-------------12-----------|
|---0-------10----10---0-|-----0-(0)------10---0----|
|-----0-(0)----------0---|---0-------0-------0------|
|------------------------|--------------------------|
|-9----------------------|-7------------------------|
|------------------------|--------------------------|


  (A5)                   (E5)
  E S S +S   S  E  E E   E  S S +S  S  E  S E   S
|--------------12------|--------------12----------|
|---0-------10----10---|------0-(0)------10-----0-|
|-----0-(0)----------0-|----0-------0-------0-----|
|----------------------|--------------------------|
|-9--------------------|-7------------------------|
|----------------------|--------------------------|
|
| Gtr II
|                        PM------------------------
| W                      E.   E     S  E  S S E
|----------------------|--------------------------|
|----------------------|--------------------------|
|----------------------|--------------------------|
|----------------------|--------------------------|
|----------------------|--------------------------|
|----------------------|-0----0-----0--0--0-0-0---|


  (A5)                        (E5)
  E  S S +S   S  E  S E   S    E  S S +S  S  E  S E   S
|---------------12----------|---------------12----------|
|----0-------10----10-----0-|------------------10-----0-|
|------0-(0)----------0-----|-<5>---0-(0)---------0-----|
|---------------------------|---------------------------|
|-9-------------------------|-----7-------7-------------|
|---------------------------|---------------------------|
|
|-----------------------|      PM-------------------|
| E.   E      S  E  S S S S    E.   E     S  E  S S E
|---------------------------|---------------------------|
|---------------------------|---------------------------|
|-------------------------7-|---------------------------|
|---------------------7h9---|---------------------------|
|-5----5------5--5--5-------|---------------------------|
|---------------------------|--0----0-----0--0--0-0-0---|


  (A5)
  Gtr IV
  W
|---------------------------------||
|---------------------------------||
|---------------------------------||
|---------------------------------||
|---------------------------------||
|---------------------------------||
|
| Gtr I
| S  S S S  S  S  S  S  +S   E  S
|----------------12---------------||
|----0------0-------10-(10)-------||
|--------0-----0------------------||
|---------------------------/7--5-||
|-9----9--------------------------||
|---------------------------------||
|
| Gtr II
|        <
| PM------------------------|
| E.     S +S  S  E      S   E.
|---------------------------------||
|---------------------------------||
|---------------------------------||
|---------------------------------||
|-5------5-(5)-5--5------5---5----||
|---------------------------------||


 Chorus
  N.C.(A5)                      (C5)
  S S S S  S  S S S +S  S S S    E. S S S S S +E   S  S
|-----------------------------|--------------------------|
|-----------------------------|--------------------------|
|-----9-----------------------|--------------------------|
|-7h9---7--7--5-7-7-(7)-5-----|-/7--5--------------------|
|-------------------------7p5-|-------7-5-7-9-(9)-10-10--|
|-----------------------------|--------------------------|
|
|                                         ~
| S S E   +Q        +E    E      Q.       Q        S  S
|-----------------------------|--------------------------|
|-----------------------------|--------------------------|
|-----9---(9)-------(9)-------|--------------------------|
|-7h9---------------------5---|--7--------5--------5--5--|
|-----------------------------|--------------------------|
|-----------------------------|--------------------------|
|
| H.                             H.
|-----------------------------|--------------------------|
|-----------------------------|--------------------------|
|-----------------------------|--------------------------|
|-----------------------------|--------------------------|
|-----------------------------|--------------------------|
|-5---------------------------|--8-----------------------|


  (E5)                          (D5)               (A5)
  S S S S  S  S S S +S  S S S    E. S S S  e E E   S S S S  S  S S S +S  S S S
|-----------------------------|------------------|-----------------------------|
|-----------------------------|------------------|-----------------------------|
|-----9-----------------------|------------------|-----9-----------------------|
|-7h9---7--7--5-7-7-(7)-5-----|-/7--5-----/9-7-5-|-7h9---7--7--5-7-7-(7)-5-----|
|-------------------------7p5-|-------7-5--------|-------------------------7p5-|
|-----------------------------|------------------|-----------------------------|
|
| S S E   +Q        +E    E      Q    E    E E E   S S E   +E    E   +Q
|-----------------------------|------------------|-----------------------------|
|-----------------------------|------------------|-----------------------------|
|-----9---(9)-------(9)-------|------------------|-----9---(9)-----------------|
|-7h9---------------------5---|--7---------------|-7h9-----------7---(7)-------|
|-----------------------------|-------7----5-----|-----------------------------|
|-----------------------------|--------------3-0-|-----------------------------|
|
| H.                             H.                H.
|-----------------------------|------------------|-----------------------------|
|-----------------------------|------------------|-----------------------------|
|-----------------------------|------------------|-----------------------------|
|-----------------------------|------------------|-----------------------------|
|-----------------------------|--5---------------|-----------------------------|
|-0---------------------------|------------------|-5---------------------------|


  (C5)
   E. S S S S S +S   S  S  S
|----------------------------|
|----------------------------|
|----------------------------|
|-/7--5----------------------|
|-------7-5-7-9-(9)-10-10-10-|
|----------------------------|
|
|  E. S E   S S +S   S  S  S
|----------------------------|
|----------------------------|
|--9--------9-9-(9)--------7-|
|--7--7-5---7-7-(7)--5--5----|
|----------------------------|
|----------------------------|
|
|  H.
|----------------------------|
|----------------------------|
|----------------------------|
|----------------------------|
|----------------------------|
|--8-------------------------|


  (G5)                        (D5)
  S S S S S S S S +S  S S S    E. S  S  S S S S S E
|---------------------------|-----------------------|
|---------------------------|-----------------------|
|-----9---------------------|-----------------------|
|-7h9---7-7-5-7-7-(7)-5-----|-/7--5-----------------|
|-----------------------7p5-|--------7p=5-----------|
|---------------------------|-------------7p5-3p0-0-|
|
| E   S S Q       +E    E      Q    +E    S S S S E
|---------------------------|-----------------------|
|---------------------------|-----------------------|
|---------9-------(9)-------|-----------------------|
|-----7h9---------------5---|--7----(7)-----------5-|
|---------------------------|-----------------------|
|---------------------------|-------------7p5-3p0---|
|
| H.                           H.
|---------------------------|-----------------------|
|---------------------------|-----------------------|
|---------------------------|-----------------------|
|---------------------------|-----------------------|
|---------------------------|--5--------------------|
|-3-------------------------|-----------------------|


  (A5)                        (C5)
  S S S S S S S S +S  S S S    E. S S S S S +S   S  S  S
|---------------------------|----------------------------|
|---------------------------|----------------------------|
|-----9---------------------|----------------------------|
|-7h9---7-7-5-7-7-(7)-5-----|-/7--5----------------------|
|-----------------------7p5-|-------7-5-7-9-(9)-10-10-10-|
|---------------------------|----------------------------|
|
| Q       E   S S +Q           Q.       Q           S  S
|---------------------------|----------------------------|
|---------------------------|----------------------------|
|---------------------------|--------------------------7-|
|-------------7-7-(7)-------|--7--------7-----------5----|
|---------7-----------------|-----------5----------------|
|---------------------------|----------------------------|
|
| H.                           H.
|---------------------------|----------------------------|
|---------------------------|----------------------------|
|---------------------------|----------------------------|
|---------------------------|----------------------------|
|---------------------------|----------------------------|
|-5-------------------------|--8-------------------------|


  (G5)
  S S S S  S  S S S +S  S S S
|-----------------------------|
|-----------------------------|
|-----9-----------------------|
|-7h9---7--7--5-7-7-(7)-5-----|
|-------------------------7p5-|
|-----------------------------|
|
| S S E   +E    S S +Q
|-----------------------------|
|-----------------------------|
|-----9---(9)-----------------|
|-7h9-----------7-7-(7)-------|
|-----------------------------|
|-----------------------------|
|
| H.
|-----------------------------|
|-----------------------------|
|-----------------------------|
|-----------------------------|
|-----------------------------|
|-3---------------------------|


  (D5)                   (C5)
   E. S  S  S  e  E  E   S S S S  S  S S S +S  S S S    S  E S S S S  S +E   E
|----------------------|-----------------------------|-------------------------|
|----------------------|-----------------------------|-------------------------|
|----------------------|-----9-----------------------|-------------------------|
|-/7--5-------/9--7--5-|-7h9---7--7--5-7-7-(7)-5-----|-/7--7-5-----------------|
|--------7--5----------|-------------------------7p5-|---------7p5-7--9-(9)-10-|
|----------------------|-----------------------------|-------------------------|
|
|  Q    +S  S  E +Q      S S E   +H                    +Q.         Q.
|----------------------|-----------------------------|-------------------------|
|----------------------|-----------------------------|-------------------------|
|----------------------|-----9---(9)-----------------|-(9)---------------------|
|--7----(7)-5--7-(7)---|-7h9-------------------------|-------------------------|
|----------------------|-----------------------------|-------------7-----------|
|----------------------|-----------------------------|-------------------------|
|
|  H.                    H.                             H.
|----------------------|-----------------------------|-------------------------|
|----------------------|-----------------------------|-------------------------|
|----------------------|-----------------------------|-------------------------|
|----------------------|-----------------------------|-------------------------|
|--5-------------------|-----------------------------|-------------------------|
|----------------------|-8---------------------------|--8----------------------|


                                                       Outro
  (G5)                          (D5)                    A7sus4
                                                         >
  S S S S  S  S S S +S  S S S    E. S S S  E S +S  E     Q       H
|-----------------------------|----------------------||-----------------------|
|-----------------------------|----------------------||-----------------------|
|-----9-----------------------|----------------------||-----------------------|
|-7h9---7--7--5-7-7-(7)-5-----|-/7--5----------------||-----------------------|
|-------------------------7p5-|-------7-5-/9-7-(7)s9-||--7--------------------|
|-----------------------------|----------------------||-----------------------|
|
| S S E   +H                    +Q    E    E E     E     E  S S +S  S E S E S
|-----------------------------|----------------------||---------------0-------|
|-----------------------------|----------------------||-----------------3---3-|
|-----9---(9)-----------------|-(9)------------------||-^0----0-(0)-------0---|
|-7h9-------------------------|----------------------||-^2--2-------2---------|
|-----------------------------|-------7----9-7-----9-||-^0--------------------|
|-----------------------------|----------------------||-----------------------|
|
|                                                       Gtr V
| H.                             H.                      H.
|-----------------------------|----------------------||-----------------------|
|-----------------------------|----------------------||-12--------------------|
|-----------------------------|----------------------||-----------------------|
|-----------------------------|----------------------||-----------------------|
|-----------------------------|--5-------------------||-----------------------|
|-3---------------------------|----------------------||-----------------------|


                             Cadd9
  Gtr I
    E  S S +S  S E S S S S    E  S S  +S  S E S E S
|----------------0-------0-|----------------0-------|
|------------------3---3---|--------------3---3---3-|
|---0----0-(0)-0-----0-----|--0----0--(0)-------0---|
|---2--2-------------------|--2--2------------------|
|---0----------------------|--3---------------------|
|--------------------------|------------------------|
|
| Gtr V
|  +H.                        E  E    +H
|--------------------------|-10---------------------|
|-(12)---------------------|----12---(12)-----------|
|--------------------------|------------------------|
|--------------------------|------------------------|
|--------------------------|------------------------|
|--------------------------|------------------------|


                         A7sus4
    E  S S +S  S E E E   E S S +S  S E S E S
|----------------0-----|-------------0-------|
|--------------3---3---|---------------3---3-|
|---0----0-(0)-------0-|-0---0-(0)-------0---|
|---2--2---------------|-2-2-------2---------|
|---3------------------|-0-------------------|
|----------------------|---------------------|
|
|  +H.                   Q     +S  S E Q
|----------------------|-7-----(7)---7-------|
|-(12)-----------------|-----------8---8-----|
|----------------------|---------------------|
|----------------------|---------------------|
|----------------------|---------------------|
|----------------------|---------------------|


   E  S S +S  S E S S S S
|---------------0-------0-|
|-----------------3---3---|
|--0----0-(0)-0-----0-----|
|--2--2-------------------|
|--0----------------------|
|-------------------------|
|
| +Q      +S  S E E   E
|---------------5---------|
|-(8)-----(8)-8---8-------|
|-------------------------|
|-------------------------|
|-------------------------|
|-------------------------|


                          H.=H
    Cadd9
    E   S S +S  S  E   S  E S   E E E  E +Q     +H.
|------------------0----------|---------------|--------*|
|---------------3------3----3-|-------^3-(3)--|-(3)----*|
|---0-----0-(0)-----------0---|-0-0-0-^0-(0)--|-(0)----*|
|---2---2---------------------|-2-2-2-^2-(2)--|-(2)----*|
|---3-------------------------|-3-3---^3-(3)--|-(3)----*|
|-----------------------------|---------------|--------*|
|
| a S E   S +E     E  +Q        E E E  E +Q     +H.
|-----------------10-(10)-----|---------------|--------*|
|---7h8---7-(7)---------------|-5-5-5--5-(5)--|-(5)----*|
|-x---------------------------|---------------|--------*|
|-----------------------------|---------------|--------*|
|-----------------------------|---------------|--------*|
|-----------------------------|---------------|--------*|


Duration Legend
---------------
W - whole; H - half; Q - quarter; E - 8th; S - 16th; T - 32nd; X - 64th; a - acciaccatura
+ - note tied to previous; . - note dotted; .. - note double dotted
Uncapitalized letters represent notes that are staccato (1/2 duration)
Irregular groupings are notated above the duration line
Duration letters will always appear directly above the note/fret number it represents the
duration for.  Duration letters with no fret number below them represent rests.  Multi-
bar rests are notated in the form Wxn, where n is the number of bars to rest for.  Low
melody durations appear below the staff

Tablature Legend
----------------
 h   - hammer-on
 p   - pull-off
 b   - bend
 pb  - pre-bend
 r   - bend release (if no number after the r, then release immediately)
 /\  - slide into or out of (from/to "nowhere")
 s   - legato slide
 S   - shift slide
  - natural harmonic
[n]  - artificial harmonic
n(n) - tapped harmonic
 ~   - vibrato
 tr  - trill
 T   - tap
 TP  - trem. picking
 PM  - palm muting
\n/  - tremolo bar dip; n = amount to dip
 \n  - tremolo bar down
 n/  - tremolo bar up
/n\  - tremolo bar inverted dip
 =   - hold bend; also acts as connecting device for hammers/pulls
 <>  - volume swell (louder/softer)
 x   - on rhythm slash represents muted slash
 o   - on rhythm slash represents single note slash

Misc Legend
-----------
 |  - bar
||  - double bar
||o - repeat start
o|| - repeat end
*|  - double bar (ending)
 :  - bar (freetime)
 $  - Segno
 &  - Coda
Tempo markers -  = BPM(8/16=s8/s16), where s8 = swing 8ths, s16 = swing 16ths


***************************************************************************************
***************************************************************************************





Comments


Popular A Perfect Circle tabs & chords
3 Libras 2 Bass Tabs
Crimes Bass Tabs
The Noose 1 Bass Tabs
The Package 3 Bass Tabs
Vanishing Bass Tabs
The Outsider Chords
Rose Tabs
The Outsider Tabs
Three Libras Tabs
Nurse Who Loved Me Ukulele


Song lyrics



↑ Back to top | Tablatures and chords are parodies/interpretations of the original songs. You may use it for private study, scholarship, research or language learning purposes only
© 2014 AZChords.com Contact us | Privacy policy | DMCA | Add/correct tabs | Request tabs | Top 50 tabs