>
 >
Pet

Pet Guitar Tabs

A Perfect  Circle - Pet chords, tabs, tablatures, lyrics

Guitar lessons | Add/correct | Request | Top 50 tabs Artists:  A B C D E F G H I J K L M N O P Q R S T U V W X Y Z 0-9

Pet Guitar Tabs – A Perfect Circle

CD, Sheet music, Poster

Do you like Pet? Share with your friends now
Bass TabsBass Tabs v2Bass Tabs v3TabsTabs v2Tabs v3
[This was created with TabIt for Windows version 1.61]

Key:
* stop string
x mute string
<> nat. harmonic
/ slide up
\ slide down
b bend
^ bend up
r release bend
h hammer-on
p pull-off
pm palm-mute

*** A LITTLE TIP FOR SOME OF YOU: Db = C#, Ab = G#, and Gb = F#.
    I assumed that people knew this but apparently a lot don't, so don't go
    making a fuss because "APC pLaYs eXclUsively in C#!!!111". Use
    some common sense.

Intro 
    Guitar 1 w/ distortion
Db :------|-----12----12----12----|12------*-----------------|
Ab :------|--15----15----15----15-|---15---*-----------------|
E  :------|-----------------------|------\11-11---^-12-r11---|
B  :------|-----------------------|--------------------------|
Gb :------|-----------------------|--------------------------|
Db :------|-----------------------|--------------------------|

    Guitar 2 w/ distortion
Db :------|-----------------------|--------------------------|
Ab :------|-----------------------|--------------------------|
E  :------|-----------------------|--------------------------|
B  :------|-----------------------|--------------------------|
Gb :------|4--4--4-----*----------|-4------*----4--/-5---4---|
Db :------|2--2--2-----*--------0-|-2------*--0-2--/-3---2---|

    Bass
E  :------|-----------------------|--------------------------|
B  :------|-----------------------|--------------------------|
Gb :------|-----------------------|--------------------------|
Db :------|2--2--2-----*--------0-|-2------*--0-2----3---2---|


Db :----------------|----------------|*----12----12----12----|
Ab :----------------|----------------|*-15----15----15----15-|
E  :----------------|----------------|*----------------------|
B  :----------------|----------------|-----------------------|
Gb :----------------|----------------|-----------------------|
Db :----------------|----------------|-----------------------|

Db :----------------|----------------|-----------------------|
Ab :----------------|----------------|-----------------------|
E  :----------------|----------------|-----------------------|
B  :----------------|----------------|-----------------------|
Gb :*---2-2-2---*---|----------------|4--4--4-----*----------|
Db :*---0-0-0---*---|----------------|2--2--2-----*--------0-|

E  :----------------|----------------|-----------------------|
B  :----------------|----------------|-----------------------|
Gb :----------------|----------------|-----------------------|
Db :*---0-0-0---*---|----------------|2--2--2-----*--------0-|


Db :12----14--*--------------|----------------|-----------------|
Ab :---15-----*--------------|----------------|-----------------|
E  :---------11---^-12-r11---|----9-----------|-----------------|
B  :-------------------------|----------------|-----------------|
Gb :-------------------------|----------------|-----------------|
Db :-------------------------|----------------|-----------------|

Db :-------------------------|----------------|-----------------|
Ab :-------------------------|----------------|-----------------|
E  :-------------------------|----------------|-----------------|
B  :-------------------------|----------------|-----------------|
Gb :-4-----*----4--/-5---4---|*---2-2-2-------|7---7-7-7-7-7-\--|
Db :-2-----*--0-2--/-3---2---|*---0-0-0-----0-|5---5-5-5-5-5-\--|

E  :-------------------------|----------------|-----------------|
B  :-------------------------|----------------|-----------------|
Gb :-------------------------|----------------|-----------------|
Db :-2-----*--0-2----3---2---|*---0-0-0-----0-|5---5-5-5-5-5-\--|


Db :*----12----12----12----|12----14--*--------------|----------------|
Ab :*-15----15----15----15-|---15-----*--------------|----------------|
E  :*----------------------|---------11---^-12-r11---|----------------|
B  :-----------------------|-------------------------|----------------|
Gb :-----------------------|-------------------------|----------------|
Db :-----------------------|-------------------------|----------------|

Db :-----------------------|-------------------------|----------------|
Ab :-----------------------|-------------------------|----------------|
E  :-----------------------|-------------------------|----------------|
B  :-----------------------|-------------------------|----------------|
Gb :4--4--4-----*----------|-4-----*----4--/-5---4---|*---2-2-2---*---|
Db :2--2--2-----*--------0-|-2-----*--0-2--/-3---2---|*---0-0-0---*---|

E  :-----------------------|-------------------------|----------------|
B  :-----------------------|-------------------------|----------------|
Gb :-----------------------|-------------------------|----------------|
Db :2--2--2-----*--------0-|-2-----*--0-2----3---2---|*---0-0-0---*---|


Db :----------------|*----12----12----12----|12----14--*--------------|
Ab :----------------|*-15----15----15----15-|---15-----*--------------|
E  :----------------|*----------------------|---------11---^-12-r11---|
B  :----------------|-----------------------|-------------------------|
Gb :----------------|-----------------------|-------------------------|
Db :----------------|-----------------------|-------------------------|

Db :----------------|-----------------------|-------------------------|
Ab :----------------|-----------------------|-------------------------|
E  :----------------|-----------------------|-------------------------|
B  :----------------|-----------------------|-------------------------|
Gb :----------------|4--4--4-----*----------|-4-----*----4--/-5---4---|
Db :----------------|2--2--2-----*--------0-|-2-----*--0-2--/-3---2---|

E  :----------------|-----------------------|-------------------------|
B  :----------------|-----------------------|-------------------------|
Gb :----------------|-----------------------|-------------------------|
Db :----------------|2--2--2-----*--------0-|-2-----*--0-2----3---2---|


Db :----------------|--------------------|
Ab :----------------|--------------------|
E  :----9-----------|--------------------|
B  :----------------|--------------------|
Gb :----------------|--------------------|
Db :----------------|--------------------|

Db :----------------|--------------------|
Ab :----------------|--------------------|
E  :----------------|--------------------|
B  :--------------2-|/7---2-/7---\2-2----|
Gb :*---2-2-2-------|--------------------|
Db :*---0-0-0-------|--------------------|

E  :----------------|--------------------|
B  :----------------|--------------------|
Gb :----------------|--------------------|
Db :*---0-0-0-----0-|-5---5--5-5--5-5-\--|

Verse
    Clean
Db :----------------|----------------|----------------|----------------|
Ab :----------------|----------------|----------------|----------------|
E  :*-------0-------|--------0-------|----------------|----------------|
B  :------4-----4---|------------4---|----------------|----------------|
Gb :----4-----------|------4---------|----------------|----------------|
Db :2---------------|--2-------------|0---------------|----------------|



Db :----------------|----------------|----------------|
Ab :----------------|----------------|----------------|
E  :--------0-------|--------0-------|----------------|
B  :------4-----4---|------------4---|----------------|
Gb :----4-----------|------4---------|----------------|
Db :2---------------|--2-------------|0---------------|



Db :----------------------|-----------------|-------------------|
Ab :----------------------|-----------------|-------------------|
E  :----------------------|---------0-------|----------0--------|
B  :-----------0----0-----|-*-----4-----4---|---------------4---|
Gb :------------------(0)-|-*---4-----------|-------4-----------|
Db :---3----3-------------|-2---------------|--2----------------|

    clean
Db :----------------------|-----------------|-------------------|
Ab :----------------------|-----------------|-------------------|
E  :--13---13-14---14-----|11---------------|----13---14---11---|
B  :----------------------|-----------------|-------------------|
Gb :----------------------|-----------------|-------------------|
Db :----------------------|-----------------|-------------------|



Db :-----------------|----------------|
Ab :-----------------|----------------|
E  :-----------------|----------------|
B  :-----------------|----------------|
Gb :-----------------|----------------|
Db :-0---------------|----------------|

Db :-----------------|----------------|
Ab :-----------------|----------------|
E  :-----------------|----------------|
B  :14---------------|----------------|
Gb :-----------------|----------------|
Db :-----------------|----------------|

E  :-----------------|----------------|
B  :-----------------|----------------|
Gb :-----------------|----------------|
Db :-----------------|----------------|

Pre-chorus
             
Db :-------------|---------------|-------------|------------|--------|
Ab :-------0-----|----*----2-----|-*-----------|------------|--------|
E  :-*-----2-----|----*----4-----|-*-----------|------------|--------|
B  :-*---2-----2-|----*--------2-|-*-----6-----|------------|--------|
Gb :-0-----------|-0-h2----------|-*---4-------|------------|--------|
Db :-*-----------|---------------|-2-----------|------------|--------|

Db :-------------|---------------|-------------|------------|--------|
Ab :10-----------|14------12-----|11-----------|------------|--------|
E  :-------------|---------------|-------------|------------|--------|
B  :-7-----------|11-------9-----|-8-----------|------------|--------|
Gb :-------------|---------------|-------------|------------|--------|
Db :-------------|---------------|-------------|------------|--------|

E  :-------------|---------------|-------------|------------|--------|
B  :-------------|---------------|-------------|------------|--------|
Gb :-0---0-0---0-|-0-h2----2---2-|-------------|------------|--------|
Db :-------------|---------------|-2-----------|------------|--------|

Chorus

    distortion
Db :*----12----12----12----|12------*-----------------|----------------|
Ab :*-15----15----15----15-|---15---*-----------------|----------------|
E  :*----------------------|------\11-11---^-12-r11---|----------------|
B  :*----------------------|--------------------------|----------------|
Gb :*----------------------|--------------------------|----------------|
Db :*----------------------|--------------------------|----------------|
 
    distortion
Db :-----------------------|--------------------------|----------------|
Ab :-----------------------|--------------------------|----------------|
E  :-----------------------|--------------------------|----------------|
B  :-----------------------|--------------------------|----------------|
Gb :4--4--4-----*----------|-4------*----4--/-5---4---|*---2-2-2---*---|
Db :2--2--2-----*--------0-|-2------*--0-2--/-3---2---|*---0-0-0---*---|

E  :-----------------------|--------------------------|----------------|
B  :-----------------------|--------------------------|----------------|
Gb :-----------------------|--------------------------|----------------|
Db :2--2--2-----*--------0-|-2------*--0-2----3---2---|*---0-0-0---*---|


Db :----------------|*-----------------------------|
Ab :----------------|*-14-^15-r14-^15-r14-^15-r14-^|
E  :----------------|*-----------------------------|
B  :----------------|------------------------------|
Gb :----------------|------------------------------|
Db :----------------|------------------------------|

Db :----------------|------------------------------|
Ab :----------------|------------------------------|
E  :----------------|------------------------------|
B  :----------------|------------------------------|
Gb :----------------|4--4---4-------*--------------|
Db :----------------|2--2---2-------*-----------0--|

E  :----------------|------------------------------|
B  :----------------|------------------------------|
Gb :----------------|------------------------------|
Db :------------0---|2--2---2-------*-----------0--|


Db :-------14--*--------------|----------------|-----------------|
Ab :15-r14-----*--------------|----------------|-----------------|
E  :----------11---^-12-r11---|----9-----------|-----------------|
B  :--------------------------|----------------|-----------------|
Gb :--------------------------|----------------|-----------------|
Db :--------------------------|----------------|-----------------|

Db :--------------------------|----------------|-----------------|
Ab :--------------------------|----------------|-----------------|
E  :--------------------------|----------------|-----------------|
B  :--------------------------|----------------|-----------------|
Gb :-4------*----4--/-5---4---|*---2-2-2-------|7---7-7-7-9-9-\--|
Db :-2------*--0-2--/-3---2---|*---0-0-0-----0-|5---5-5-5-7-7-\--|

E  :--------------------------|----------------|-----------------|
B  :--------------------------|----------------|-----------------|
Gb :--------------------------|----------------|-----------------|
Db :-2------*--0-2----3---2---|*---0-0-0-----0-|5---5-5-5-7-7-\--|


Db :*----12----12----12----|12----14--*--------------|----------------|
Ab :*-15----15----15----15-|---15-----*--------------|----------------|
E  :*----------------------|---------11---^-12-r11---|----------------|
B  :-----------------------|-------------------------|----------------|
Gb :-----------------------|-------------------------|----------------|
Db :-----------------------|-------------------------|----------------|

Db :-----------------------|-------------------------|----------------|
Ab :-----------------------|-------------------------|----------------|
E  :-----------------------|-------------------------|----------------|
B  :-----------------------|-------------------------|----------------|
Gb :4--4--4-----*----------|-4-----*----4--/-5---4---|*---2-2-2---*---|
Db :2--2--2-----*--------0-|-2-----*--0-2--/-3---2---|*---0-0-0---*---|

E  :-----------------------|-------------------------|----------------|
B  :-----------------------|-------------------------|----------------|
Gb :-----------------------|-------------------------|----------------|
Db :2--2--2-----*--------0-|-2-----*--0-2----3---2---|*---0-0-0---*---|


Db :----------------|*-----------------------------|
Ab :----------------|*-14-^15-r14-^15-r14-^15-r14-^|
E  :----------------|*-----------------------------|
B  :----------------|------------------------------|
Gb :----------------|------------------------------|
Db :----------------|------------------------------|

Db :----------------|------------------------------|
Ab :----------------|------------------------------|
E  :----------------|------------------------------|
B  :----------------|------------------------------|
Gb :----------------|4--4---4-------*--------------|
Db :----------------|2--2---2-------*-----------0--|

E  :----------------|------------------------------|
B  :----------------|------------------------------|
Gb :----------------|------------------------------|
Db :----------------|2--2---2-------*-----------0--|


Db :-------14--*--------------|----------------|--------------------|
Ab :15-r14-----*--------------|----------------|--------------------|
E  :----------11---^-12-r11---|----9-----------|--------------------|
B  :--------------------------|----------------|--------------------|
Gb :--------------------------|----------------|--------------------|
Db :--------------------------|----------------|--------------------|

Db :--------------------------|----------------|--------------------|
Ab :--------------------------|----------------|--------------------|
E  :--------------------------|----------------|--------------------|
B  :--------------------------|--------------2-|/7---2-/9---\9-\4---|
Gb :-4------*----4--/-5---4---|*---2-2-2-------|--------------------|
Db :-2------*--0-2--/-3---2---|*---0-0-0-------|--------------------|

E  :--------------------------|----------------|--------------------|
B  :--------------------------|----------------|--------------------|
Gb :--------------------------|----------------|-0---0--2-2--2------|
Db :-2------*--0-2----3---2---|*---0-0-0-----0-|----------------0---|

Verse 2
    Clean
Db :--------------------------|-----------------|------------------|
Ab :--------------------------|-----------------|------------------|
E  :*--------------0----------|--------0--------|----------0-------|
B  :-----------4----------4---|------------4----|--------4-----4---|
Gb :-------4------------------|------4----------|------2-----------|
Db :2-------------------------|--2--------------|-0----------------|

Db :--------------------------|-----------------|------------------|
Ab :--------------------------|-----------------|------------------|
E  :--------------------------|-----------------|------------------|
B  :--------------------------|---------------\-|(2)---------------|
Gb :--------------------------|-----------------|------------------|
Db :--------------------------|-----------------|------------------|

E  :--------------------------|-----------------|------------------|
B  :--------------------------|-----------------|------------------|
Gb :9-\-\-\-\-\-\-\-\-\-\-*---|-----------------|------------------|
Db :--------------------------|-----------------|------------------|


Db :----------------|----------------|----------------|----------------|
Ab :----------------|----------------|----------------|----------------|
E  :----------------|--------0-------|--------0-------|--------0-------|
B  :----------------|------4-----4---|------------4---|------4-----4---|
Gb :----------------|----4-----------|------4---------|----2-----------|
Db :----------------|2---------------|--2-------------|0---------------|

Db :----------------|----------------|----------------|----------------|
Ab :----------------|----------------|----------------|----------------|
E  :----------------|----------------|----------------|----------------|
B  :----------------|*---------------|----------------|----------------|
Gb :----------------|----------------|----------------|----------------|
Db :----------------|----------------|----------------|----------------|



Db :-------------------|----------------|----------------|
Ab :-------------------|----------------|----------------|
E  :-------------------|--------0-------|--------0-------|
B  :----------0----0---|*-----4-----4---|------------4---|
Gb :-------------------|----4-----------|------4---------|
Db :--3----3-----------|2---------------|--2-------------|

    Clean
Db :-------------------|----------------|----------------|
Ab :-------------------|----------------|----------------|
E  :-------------------|----------------|----------------|
B  :-------------------|----------------|----------------|
Gb :----10---10---10---|9---9---9---9---|9---9---9---9---|
Db :-------------------|----------------|----------------|



Db :----------------|----------------|----------------|----------------|
Ab :----------------|----------------|----------------|----------------|
E  :--------0-------|----------------|--------0-------|--------0-------|
B  :------4-----4---|----------------|------4-----4---|------------4---|
Gb :----2-----------|----------------|----4-----------|------4---------|
Db :0---------------|----------------|2---------------|--2-------------|

Db :----------------|----------------|----------------|----------------|
Ab :----------------|----------------|----------------|----------------|
E  :----------------|----------------|----------------|----------------|
B  :----------------|----------------|----------------|----------------|
Gb :7---------------|----------------|9---9---9---9---|9---9---9---9---|
Db :----------------|----------------|----------------|----------------|



Db :----------------|----------------|
Ab :------5---------|----------------|
E  :*---4-----------|----------------|
B  :2---------------|----------------|
Gb :*---------------|----------------|
Db :*---------------|----------------|

Db :----------------|----------------|
Ab :----------------|----------------|
E  :----------------|----------------|
B  :----------------|----------------|
Gb :7---------------|----------------|
Db :----------------|----------------|

E  :----------------|----------------|
B  :----------------|----------------|
Gb :----------------|----------------|
Db :----------------|----------------|

Pre-Chorus

Db :------------|-------------|------------|------------|------------|
Ab :*-----0-----|---*---2-----|*-----------|------------|*-----0-----|
E  :*-----2-----|---*---4-----|*-----------|------------|*-----2-----|
B  :*---2-----2-|---*-4-----4-|*-----6-----|------------|*---2-----2-|
Gb :0-----------|0-h2---------|*---4-------|------------|0-----------|
Db :------------|-------------|2-----------|------------|------------|

Db :------------|-------------|------------|------------|------------|
Ab :------------|-------------|------------|------------|------------|
E  :6-----------|-------------|------------|------------|------------|
B  :------------|-------------|------------|------------|------------|
Gb :------------|-------------|------------|------------|------------|
Db :------------|-------------|------------|------------|------------|

E  :------------|-------------|------------|------------|------------|
B  :------------|-------------|------------|------------|------------|
Gb :0---0-0---0-|0-h2---2---2-|------------|------------|0---0-0---0-|
Db :------------|-------------|2-----------|------------|------------|


Db :-------------|------------|-------------|------------|-------------|
Ab :3-p2-2---2---|*-----------|-------------|*-----0-----|---*---2-----|
E  :-------------|*-----------|-------------|*-----2-----|---*---4-----|
B  :-----------4-|*-----6-----|-------------|*---2-----2-|---*-------4-|
Gb :-------------|*---4-------|-------------|0-----------|0-h2---------|
Db :-------------|2-----------|-------------|------------|-------------|

Db :-------------|------------|-------------|------------|-------------|
Ab :---------5---|------------|-------------|------------|-------------|
E  :-------------|6-----------|4---7-p6-----|6-----------|-------------|
B  :-------------|------------|-------------|------------|-------------|
Gb :-------------|------------|-------------|------------|-------------|
Db :-------------|------------|-------------|------------|-------------|

E  :-------------|------------|-------------|------------|-------------|
B  :-------------|------------|-------------|------------|-------------|
Gb :0-h2---2---2-|------------|-------------|0---0-0---0-|0-h2---2---2-|
Db :-------------|2-----------|-------------|------------|-------------|


Db :------------|--------------|------------|-------------|
Ab :*-----------|--------------|*-----0-----|---*---2-----|
E  :*-----------|--------------|*-----2-----|---*---4-----|
B  :*-----6-----|--------------|*---2-----2-|---*-------4-|
Gb :*---4-------|--------------|0-----------|0-h2---------|
Db :2-----------|--------------|------------|-------------|

Db :------------|--------------|------------|-------------|
Ab :------------|--------------|------------|-------------|
E  :------4-----|3-------------|------------|-------------|
B  :------------|------(4)-----|4-----------|-------------|
Gb :------------|--------------|------------|-------------|
Db :------------|--------------|------------|-------------|

E  :------------|--------------|------------|-------------|
B  :------------|--------------|------------|-------------|
Gb :------------|--------------|0---0-0---0-|0-h2---2---2-|
Db :2---------2-|0-2----2----2-|------------|-------------|


Db :---------------|-------------|------------|------------|--------|
Ab :*--------------|-------------|------------|------------|--------|
E  :*--------------|-------------|------------|------------|--------|
B  :*--------------|-------------|------------|------------|--------|
Gb :*--------------|-------------|------------|------------|--------|
Db :2--------------|-------------|------------|------------|--------|

Db :---------------|-------------|------------|------------|--------|
Ab :---------------|-------------|------------|------------|--------|
E  :---------------|-------------|------------|------------|--------|
B  :5-p4-4-5-p4-4-^|5---r4-------|------------|------------|--------|
Gb :---------------|-------------|------------|------------|--------|
Db :---------------|-------------|------------|------------|--------|

E  :---------------|-------------|------------|------------|--------|
B  :---------------|-------------|------------|------------|--------|
Gb :---------------|-------------|------------|------------|--------|
Db :2--------------|-------------|------------|------------|--------|

Chorus 2

    distortion
Db :*-----------------------------|---------*-----------------|
Ab :*-14-^15-r14-^15-r14-^15-r14-^|15-r14---*-----------------|
E  :*-----------------------------|-------\11-11---^-12-r11---|
B  :*-----------------------------|---------------------------|
Gb :*-----------------------------|---------------------------|
Db :*-----------------------------|---------------------------|

    distortion
Db :------------------------------|---------------------------|
Ab :------------------------------|---------------------------|
E  :------------------------------|---------------------------|
B  :------------------------------|---------------------------|
Gb :4--4---4-------*--------------|-4-------*----4--/-5---4---|
Db :2--2---2-------*-----------0--|-2-------*--0-2--/-3---2---|

E  :------------------------------|---------------------------|
B  :------------------------------|---------------------------|
Gb :------------------------------|---------------------------|
Db :2--2---2-------*-----------0--|-2-------*--0-2----3---2---|


Db :----------------|----------------|*-----------------------------|
Ab :----------------|----------------|*-14-^15-r14-^15-r14-^15-r14-^|
E  :----------------|----------------|*-----------------------------|
B  :----------------|----------------|------------------------------|
Gb :----------------|----------------|------------------------------|
Db :----------------|----------------|------------------------------|

Db :----------------|----------------|------------------------------|
Ab :----------------|----------------|------------------------------|
E  :----------------|----------------|------------------------------|
B  :----------------|----------------|------------------------------|
Gb :*---2-2-2---*---|----------------|4--4---4-------*--------------|
Db :*---0-0-0---*---|----------------|2--2---2-------*-----------0--|

E  :----------------|----------------|------------------------------|
B  :----------------|----------------|------------------------------|
Gb :----------------|----------------|------------------------------|
Db :*---0-0-0---*---|------------0---|2--2---2-------*-----------0--|


Db :-------14--*--------------|----------------|-----------------|
Ab :15-r14-----*--------------|----------------|-----------------|
E  :----------11---^-12-r11---|----9-----------|-----------------|
B  :--------------------------|----------------|-----------------|
Gb :--------------------------|----------------|-----------------|
Db :--------------------------|----------------|-----------------|

Db :--------------------------|----------------|-----------------|
Ab :--------------------------|----------------|-----------------|
E  :--------------------------|----------------|-----------------|
B  :--------------------------|----------------|-----------------|
Gb :-4------*----4--/-5---4---|*---2-2-2-------|7---7-7-7-\4-4---|
Db :-2------*--0-2--/-3---2---|*---0-0-0-----0-|5---5-5-5-\2-2---|

E  :--------------------------|----------------|-----------------|
B  :--------------------------|----------------|-----------------|
Gb :--------------------------|----------------|-----------------|
Db :-2------*--0-2----3---2---|*---0-0-0-----0-|5---5-5-5-\2-2---|


Db :*-----------------------------|--------*-----------------|
Ab :*-14-^15-r14-^15-r14-^15-r14-^|15-r14--*-----------------|
E  :*-----------------------------|-------11-11---^-12-r11---|
B  :------------------------------|--------------------------|
Gb :------------------------------|--------------------------|
Db :------------------------------|--------------------------|

Db :------------------------------|--------------------------|
Ab :------------------------------|--------------------------|
E  :------------------------------|--------------------------|
B  :------------------------------|--------------------------|
Gb :4--4---4-------*--------------|-4------*----4--/-5---4---|
Db :2--2---2-------*-----------0--|-2------*--0-2--/-3---2---|

E  :------------------------------|--------------------------|
B  :------------------------------|--------------------------|
Gb :------------------------------|--------------------------|
Db :2--2---2-------*-----------0--|-2------*--0-2----3---2---|


Db :----------------|----------------|*-----------------------------|
Ab :----------------|----------------|*-14-^15-r14-^15-r14-^15-r14-^|
E  :----------------|----------------|*-----------------------------|
B  :----------------|----------------|------------------------------|
Gb :----------------|----------------|------------------------------|
Db :----------------|----------------|------------------------------|

Db :----------------|----------------|------------------------------|
Ab :----------------|----------------|------------------------------|
E  :----------------|----------------|------------------------------|
B  :----------------|----------------|------------------------------|
Gb :*---2-2-2---*---|----------------|4--4---4-------*--------------|
Db :*---0-0-0---*---|----------------|2--2---2-------*-----------0--|

E  :----------------|----------------|------------------------------|
B  :----------------|----------------|------------------------------|
Gb :----------------|----------------|------------------------------|
Db :*---0-0-0---*---|----------------|2--2---2-------*-----------0--|


Db :-------14--*--------------|----------------|----------------|
Ab :15-r14-----*--------------|----------------|----------------|
E  :----------11---^-12-r11---|----9-----------|----------------|
B  :--------------------------|----------------|----------------|
Gb :--------------------------|----------------|----------------|
Db :--------------------------|----------------|----------------|

Db :--------------------------|----------------|----------------|
Ab :--------------------------|----------------|----------------|
E  :--------------------------|----------------|----------------|
B  :--------------------------|----------------|----------------|
Gb :-4------*----4--/-5---4---|*---2-2-2-------|7-7-7-7-7-7-7---|
Db :-2------*--0-2--/-3---2---|*---0-0-0-----0-|5-5-5-5-5-5-5---|

E  :--------------------------|----------------|----------------|
B  :--------------------------|----------------|----------------|
Gb :--------------------------|----------------|----------------|
Db :-2------*--0-2----3---2---|*---0-0-0-----0-|5-5-5-5-5-5-5---|

Interlude

    clean
Db :----------------|----------------|----------------|----------------|
Ab :--2-----2-----2-|----2-----2-2---|--2-----2-----1-|----------------|
E  :*---------------|----------------|----------------|----------------|
B  :4-----4-----4---|--4-----4-----4-|2-----2-----0---|----------------|
Gb :----------------|----------------|----------------|----------------|
Db :----------------|----------------|----------------|----------------|

E  :----------------|----------------|----------------|----------------|
B  :----------------|----------------|----------------|----------------|
Gb :----------------|----------------|----------------|----------0-0-0-|
Db :*---------------|----------------|----------------|----------------|


Db :-----------------|----------------|----------------|----------------|
Ab :---2-----2-----2-|----2-----2-2---|--2-----2-------|----------------|
E  :-----------------|----------------|----------------|----------------|
B  :-4-----4-----4---|--4-----4-----4-|2-----2-----0---|----------------|
Gb :-----------------|----------------|----------------|----------------|
Db :-----------------|----------------|----------------|----------------|

    clean
Db :-----------------|----------------|----------------|----------------|
Ab :10-------------9-|----------------|7---------------|----------------|
E  :-----------------|----------------|----------------|----------------|
B  :-7-------------6-|----------------|4---------------|----------------|
Gb :-----------------|----------------|----------------|----------------|
Db :-----------------|----------------|----------------|----------------|

E  :-----------------|----------------|----------------|----------------|
B  :-----------------|----------------|----------------|----------------|
Gb :-9-9-9-9---9-9-9-|--9-9---9-9-9-9-|7-7-7-7---7-5-5-|--5-5---5-5-5-5-|
Db :-----------------|----------------|----------------|----------------|


Db :-----------------|----------------|----------------|----------------|
Ab :---2-----2-----2-|----2-----2-2---|--2-----2-------|----------------|
E  :-----------------|----------------|----------------|----------------|
B  :-4-----4-----4---|--4-----4-----4-|2-----2-----0---|----------------|
Gb :-----------------|----------------|----------------|----------------|
Db :-----------------|----------------|----------------|----------------|

Db :-----------------|----------------|----------------|----------------|
Ab :10-------------9-|----------------|7---------------|----------------|
E  :-----------------|----------------|----------------|----------------|
B  :-7-------------6-|----------------|4---------------|----------------|
Gb :-----------------|----------------|----------------|----------------|
Db :-----------------|----------------|----------------|----------------|

E  :-----------------|----------------|----------------|----------------|
B  :-----------------|----------------|----------------|----------------|
Gb :-9-9-9-9---9-9-9-|--9-9---9-9-9-9-|7-7-7-7---7-5-5-|--5-5---5-5-5-5-|
Db :-----------------|----------------|----------------|----------------|


Db :-----------------|----------------|----------------|----------------|
Ab :---2-----2-----2-|----2-----2-2---|--2-----2-------|----------------|
E  :-----------------|----------------|----------------|----------------|
B  :-4-----4-----4---|--4-----4-----4-|2-----2-----0---|----------------|
Gb :-----------------|----------------|----------------|----------------|
Db :-----------------|----------------|----------------|----------------|

Db :-----------------|----------------|----------------|----------------|
Ab :10-------------9-|----------------|----------------|----------------|
E  :-----------------|----------------|6---------------|----------------|
B  :-7-------------6-|----------------|----------------|----------------|
Gb :-----------------|----------------|4---------------|----------------|
Db :-----------------|----------------|----------------|----------------|

E  :-----------------|----------------|----------------|----------------|
B  :-----------------|----------------|----------------|----------------|
Gb :-9-9-9-9---9-9-9-|--9-9---9-9-9-9-|4-4-4-4---4-0-0-|--0-0---0-0-0-0-|
Db :-----------------|----------------|----------------|----------------|

                                        pm---------------|
Db :-----------------|----------------|------------------|
Ab :---2-----2-----2-|----2-----2-2---|------------------|
E  :-----------------|----------------|------------------|
B  :-4-----4-----4---|--4-----4-----4-|-0-0-0-0-0-0-0--0-|
Gb :-----------------|----------------|------------------|
Db :-----------------|----------------|------------------|

Db :-----------------|----------------|------------------|
Ab :-----------------|----------------|10-------------14-|
E  :11---------------|----------------|------------------|
B  :-----------------|----------------|-7-------------11-|
Gb :-9---------------|----------------|------------------|
Db :-----------------|----------------|------------------|

E  :-----------------|----------------|------------------|
B  :-----------------|----------------|------------------|
Gb :-9-9-9-9---9-9-9-|--9-9---9-9-9-9-|-5-5-5-5-5-5-5--5-|
Db :-----------------|----------------|------------------|


    pm-----------|
Db :------------------|
Ab :------------------|
E  :------------------|
B  :0-0-0-0-0-0-0-----|
Gb :------------------|
Db :------------------|
             
Db :------------------|
Ab :------------------|
E  :------------------|
B  :------------------|
Gb :------------------|
Db :------------5--\--|

E  :------------------|
B  :------------------|
Gb :5-5-5-5-5-5-5\----|
Db :------------------|


    Distortion (and wah)
Db :------------------------|------------------------|
Ab :------------------------|------------------------|
E  :14-14-14-14-14-14-14-14-|14-14-14-14-14-14-14-14-|
B  :-x--x--x--x--x--x--x--x-|-x--x--x--x--x--x--x--x-|
Gb :12-12-12-12-12-12-12-12-|12-12-12-12-12-12-12-12-|
Db :------------------------|------------------------|

    Distortion
Db :------------------------|------------------------|
Ab :------------------------|------------------------|
E  :------------------------|------------------------|
B  :------------12----11----|------------12----11----|
Gb :----4--4----10-----9----|-------4----10-----9----|
Db :-0--2--2--0-------------|----0--2--0-------------|

E  :------------------------|------------------------|
B  :------------------------|------------------------|
Gb :------------10-----9----|------------10-----9----|
Db :-0--2--2--0-------------|----0--2--0-------------|

    "Swayin' to the rhythm..."
Db :------------------------|-------------------------|
Ab :------------------------|-------------------------|
E  :11-11-11-11-11-11-11-11-|11--11-11-11-11-11-11-11-|
B  :-x--x--x--x--x--x--x--x-|-x---x--x--x--x--x--x--x-|
Gb :-9--9--9--9--9--9--9--9-|-9---9--9--9--9--9--9--9-|
Db :------------------------|-------------------------|

Db :------------------------|-------------------------|
Ab :------------------------|-------------------------|
E  :-9-----9--9--9-----9--9-|-9-\-4--4-----4--4--4--4-|
B  :-9-----9--9--9-----9--9-|-9-\-4--4-----4--4--4--4-|
Gb :-7-----7--7--7-----7--7-|-7-\-2--2-----2--2--2--2-|
Db :------------------------|-------------------------|

E  :------------------------|-------------------------|
B  :------------------------|-------------------------|
Gb :-7--7--7--7--7--7--7--7-|-7---2--2-----2--2--2--2-|
Db :------------------------|-------------------------|


Db :------------------------|------------------------|
Ab :------------------------|------------------------|
E  :14-14-14-14-14-14-14-14-|14-14-14-14-14-14-14-14-|
B  :-x--x--x--x--x--x--x--x-|-x--x--x--x--x--x--x--x-|
Gb :12-12-12-12-12-12-12-12-|12-12-12-12-12-12-12-12-|
Db :------------------------|------------------------|

Db :------------------------|------------------------|
Ab :------------------------|------------------------|
E  :------------------------|------------------------|
B  :------------12----11----|------------12----11----|
Gb :----4--4----10-----9----|-------4----10-----9----|
Db :-0--2--2--0-------------|----0--2--0-------------|

E  :------------------------|------------------------|
B  :------------------------|------------------------|
Gb :------------10-----9----|------------10-----9----|
Db :-0--2--2--0-------------|----0--2--0-------------|

    "...bodies like sheep..."
Db :-------------------------|------------------------|
Ab :-------------------------|------------------------|
E  :11-11-11-11-11-11-11--11-|11-11-11-11-11-11-11-11-|
B  :-x--x--x--x--x--x--x---x-|-x--x--x--x--x--x--x--x-|
Gb :-9--9--9--9--9--9--9---9-|-9--9--9--9--9--9--9--9-|
Db :-------------------------|------------------------|

Db :-------------------------|------------------------|
Ab :-------------------------|------------------------|
E  :-9-----9--9--9-----9-/14-|14-14-14-14-14-14-14-14-|
B  :-9-----9--9--9-----9-/14-|14-14-14-14-14-14-14-14-|
Gb :-7-----7--7--7-----7-/12-|12-12-12-12-12-12-12-12-|
Db :-------------------------|------------------------|

E  :-------------------------|------------------------|
B  :-------------------------|------------------------|
Gb :-7--7--7--7--7--7--7-/12-|12-12-12-12-12-12-12-12-|
Db :-------------------------|------------------------|


Db :------------------------|-------------------------|
Ab :------------------------|-------------------------|
E  :14-14-14-14-14-14-14-14-|-14-14-14-14-14-14-14-14-|
B  :-x--x--x--x--x--x--x--x-|--x--x--x--x--x--x--x--x-|
Gb :12-12-12-12-12-12-12-12-|-12-12-12-12-12-12-12-12-|
Db :------------------------|-------------------------|

Db :------------------------|-------------------------|
Ab :------------------------|-------------------------|
E  :------------------------|-------------------------|
B  :------------12----11----|\------------12----11----|
Gb :----4--4----10-----9----|\-------4----10-----9----|
Db :-0--2--2--0-------------|-----0--2--0-------------|

E  :------------------------|-------------------------|
B  :------------------------|-------------------------|
Gb :------------10-----9----|-------------10-----9----|
Db :-0--2--2--0-------------|-----0--2--0-------------|

    "...boogie men are comin'...."
Db :------------------------|-------------------------|
Ab :------------------------|-------------------------|
E  :11-11-11-11-11-11-11-11-|11--11-11-11-11-11-11-11-|
B  :-x--x--x--x--x--x--x--x-|-x---x--x--x--x--x--x--x-|
Gb :-9--9--9--9--9--9--9--9-|-9---9--9--9--9--9--9--9-|
Db :------------------------|-------------------------|

Db :------------------------|-------------------------|
Ab :------------------------|-------------------------|
E  :-9-----9--9--9--------9-|-9-\-4--4-----4--4--4--4-|
B  :-9-----9--9--9--------9-|-9-\-4--4-----4--4--4--4-|
Gb :-7-----7--7--7--------7-|-7-\-2--2-----2--2--2--2-|
Db :------------------------|-------------------------|

E  :------------------------|-------------------------|
B  :------------------------|-------------------------|
Gb :-7--7--7--7--7--7--7--7-|-7---2--2-----2--2--2--2-|
Db :------------------------|-------------------------|

                                         "Keep your head..."
Db :------------------------|------------------------|
Ab :------------------------|------------------------|
E  :14-14-14-14-14-11-14-14-|14-14-14-11-14-14-14-11-|
B  :-x--x--x--x--x--x--x--x-|-x--x--x--x--x--x--x--x-|
Gb :12-12-12-12-12--9-12-12-|12-12-12--9-12-12-12--9-|
Db :------------------------|------------------------|

Db :------------------------|------------------------|
Ab :------------------------|------------------------|
E  :------------------------|------------------------|
B  :------------12----11----|------------12----11----|
Gb :----4--4----10-----9----|-------4----10-----9----|
Db :-0--2--2--0-------------|----0--2--0-------------|

E  :------------------------|------------------------|
B  :------------------------|------------------------|
Gb :------------10-----9----|------------10-----9----|
Db :-0--2--2--0-------------|----0--2--0-------------|

    "...down, go to sleep..."
Db :-------------------------|------------------------|
Ab :-------------------------|------------------------|
E  :11-11-11-11-11-11-11--11-|18-18-18-18-18-18-18-18-|
B  :-x--x--x--x--x--x--x---x-|-x--x--x--x--x--x--x--x-|
Gb :-9--9--9--9--9--9--9---9-|16-16-16-16-16-16-16-16-|
Db :-------------------------|------------------------|

Db :-------------------------|------------------------|
Ab :-------------------------|------------------------|
E  :-9-----9--9--9-----9-/14-|14-14-14-14-14-14-14-14-|
B  :-9-----9--9--9-----9-/14-|14-14-14-14-14-14-14-14-|
Gb :-7-----7--7--7-----7-/12-|12-12-12-12-12-12-12-12-|
Db :-------------------------|------------------------|

E  :-------------------------|------------------------|
B  :-------------------------|------------------------|
Gb :-7--7--7--7--7--7--7--12-|12-12-12-12-12-12-12-12-|
Db :-------------------------|------------------------|

Solo-type thing
Db :-------------------|-------------------|-------------|-------------|
Ab :-------------------|-------------------|-------------|-------------|
E  :18-\16-16-16-16-16-|16-16-16-16-16-\15-|15-----------|------16-----|
B  :-x------x--x--x--x-|-x--x--x--x--x-----|-x-----------|-------x-----|
Gb :16-\14-14-14-14-14-|14-14-14-14-14-\13-|13-----------|------14-----|
Db :-------------------|-------------------|-------------|-------------|

Db :-------------------|-------------------|-------------|-------------|
Ab :-------------------|-------------------|-------------|-------------|
E  :-2---2-----2-----2-|----4-----4------4-|-------------|-------------|
B  :-2---2-----2-----2-|----4-----4------4-|-4-----4---4-|4-4----4---4-|
Gb :-0---0-----0-----0-|-0--2-----2------2-|-4-----4---4-|4-4----4---4-|
Db :-------------------|-------------------|-2-----2---2-|2-2----2---2-|

E  :-------------------|-------------------|-------------|-------------|
B  :-------------------|-------------------|-------------|-------------|
Gb :-0---0-----0-----0-|-0--2-----2------2-|-------------|-------------|
Db :-------------------|-------------------|-2-----2---2-|2-2----2---2-|


Db :---------------|-----------------|----------------|-------------|
Ab :---------------|-----------------|----------------|-------------|
E  :18-----16---18-|21-\19--18-------|----18-16-15-16-|15-----------|
B  :-x------x----x-|-x-------x-------|-----x--x--x--x-|-x-----------|
Gb :16-----14---16-|19-\17--16-------|----16-14-13-14-|13-----------|
Db :---------------|-----------------|----------------|-------------|

Db :---------------|-----------------|----------------|-------------|
Ab :---------------|-----------------|----------------|-------------|
E  :-2-2----2----2-|-4-/-6-\-4-4---4-|----------------|-------------|
B  :-2-2----2----2-|-4-/-6-\-4-4---4-|4-------4-----4-|-4-4---4---4-|
Gb :-0-0----0----0-|-2-/-4-\-2-2---2-|4-------4-----4-|-4-4---4---4-|
Db :---------------|-----------------|2-------2-----2-|-2-2---2---2-|

E  :---------------|-----------------|----------------|-------------|
B  :---------------|-----------------|----------------|-------------|
Gb :-0-0----0----0-|-2---4---2-2---2-|----------------|-------------|
Db :---------------|-----------------|2-------2-----2-|-2-2---2---2-|


Db :----------------|-----------------|-----------------|
Ab :----------------|-----------------|-----------------|
E  :11---9-/11---11-|14-\11---11---11-|14-\11---11---11-|
B  :-x---x--------x-|-x--------x----x-|-x--------x----x-|
Gb :-9---7-/-9----9-|12-\-9----9----9-|12-\-9----9----9-|
Db :----------------|-----------------|-----------------|

Db :----------------|-----------------|-----------------|
Ab :----------------|-----------------|-----------------|
E  :-2-------2----2-|-----4----4----4-|-----------------|
B  :-2-------2----2-|-----4----4----4-|-4--------4----4-|
Gb :-0-------0----0-|-0---2----2----2-|-4--------4----4-|
Db :----------------|-----------------|-2--------2----2-|

E  :----------------|-----------------|-----------------|
B  :----------------|-----------------|-----------------|
Gb :-0-------0----0-|-0---2----2----2-|-----------------|
Db :----------------|-----------------|-2--------2----2-|


Db :----------------|----------------|----------------|--------------|
Ab :----------------|----------------|----------------|--------------|
E  :9-/11---11---11-|9-/11---9-/11---|14-\11---11-----|14-----16-----|
B  :x--------x----x-|x-------x-------|-x--------x-----|-x------x-----|
Gb :7-/-9----9----9-|7-/-9---7-/-9---|12-\-9----9-----|12-----14-----|
Db :----------------|----------------|----------------|--------------|

Db :----------------|----------------|----------------|--------------|
Ab :----------------|----------------|----------------|--------------|
E  :----------------|2---2---2-----2-|-----4----4---4-|--------------|
B  :----4----4----4-|2---2---2-----2-|-----4----4---4-|-4------4---4-|
Gb :----4----4----4-|0---0---0-----0-|-0---2----2---2-|-4------4---4-|
Db :0---2----2-0--2-|----------------|----------------|-2------2---2-|

E  :----------------|----------------|----------------|--------------|
B  :----------------|----------------|----------------|--------------|
Gb :----------------|0---0---0-----0-|-0---2----2---2-|--------------|
Db :0---2----2-0--2-|----------------|----------------|-2------2---2-|


Db :--------------|
Ab :--------------|
E  :18------------|
B  :-x------------|
Gb :16------------|
Db :--------------|

Db :--------------|
Ab :--------------|
E  :--------------|
B  :-4-4---4~-----|
Gb :-4-4----------|
Db :-2-2----------|

E  :--------------|
B  :--------------|
Gb :--------------|
Db :-2-2---2----2-|

                        "Stay with me..."
Db :-------------------|------------------|------------------|
Ab :-------------------|------------------|------------------|
E  :16-/18-18-18-18-18-|18-18-18-18-18-18-|18-18-18-16-15-16-|
B  :-x------x--x--x--x-|-x--x--x--x--x--x-|-x--x--x--x--x--x-|
Gb :14-/16-16-16-16-16-|16-16-16-16-16-16-|16-16-16-14-13-14-|
Db :-------------------|------------------|------------------|

Db :-------------------|------------------|------------------|
Ab :-------------------|------------------|------------------|
E  :-2---2-----2-----2-|----4-----4-----4-|------------------|
B  :-2---2-----2-----2-|----4-----4-----4-|-4--------4-----4-|
Gb :-0---0-----0-----0-|-0--2-----2-----2-|-4--------4-----4-|
Db :-------------------|------------------|-2--------2-----2-|

E  :-------------------|------------------|------------------|
B  :-------------------|------------------|------------------|
Gb :-0---0-----0-----0-|-0--2-----2-----2-|------------------|
Db :-------------------|------------------|-2--------2-----2-|

                       "Safe and..."
Db :------------------|------------------|--------------------|
Ab :------------------|------------------|--------------------|
E  :15-15-15-15-15-15-|18-18-18-18-18-18-|18--18--18-18-18-18-|
B  :-x--x--x--x--x--x-|-x--x--x--x--x--x-|-x---x---x--x--x--x-|
Gb :13-13-13-13-13-13-|16-16-16-16-16-16-|16--16--16-16-16-16-|
Db :------------------|------------------|--------------------|

Db :------------------|------------------|--------------------|
Ab :------------------|------------------|--------------------|
E  :------------------|-2--2-----2-----2-|-4-/-6-\-4--4-----4-|
B  :-4--4-----4-----4-|-2--2-----2-----2-|-4-/-6-\-4--4-----4-|
Gb :-4--4-----4-----4-|-0--0-----0-----0-|-2-/-4-\-2--2-----2-|
Db :-2--2-----2-----2-|------------------|--------------------|

E  :------------------|------------------|--------------------|
B  :------------------|------------------|--------------------|
Gb :------------------|-0--0-----0-----0-|-2---4---2--2-----2-|
Db :-2--2-----2-----2-|------------------|--------------------|


Db :------------------|------------------|------------------|
Ab :------------------|------------------|------------------|
E  :18-18-18-16-15-16-|15-15-15-15-15-15-|18-18-18-18-18-18-|
B  :-x--x--x--x--x--x-|-x--x--x--x--x--x-|-x--x--x--x--x--x-|
Gb :16-16-16-14-13-14-|13-13-13-13-13-13-|16-16-16-16-16-16-|
Db :------------------|------------------|------------------|

Db :------------------|------------------|------------------|
Ab :------------------|------------------|------------------|
E  :------------------|------------------|-2--2-----2-----2-|
B  :-4--------4-----4-|-4--4-----4-----4-|-2--2-----2-----2-|
Gb :-4--------4-----4-|-4--4-----4-----4-|-0--0-----0-----0-|
Db :-2--------2-----2-|-2--2-----2-----2-|------------------|

E  :------------------|------------------|------------------|
B  :------------------|------------------|------------------|
Gb :------------------|------------------|-0--0-----0-----0-|
Db :-2--------2-----2-|-2--2-----2-----2-|------------------|

    "...Stay with me..."
Db :------------------|------------------|------------------|
Ab :------------------|------------------|------------------|
E  :18-18-18-18-18-18-|18-18-18-16-15-16-|15-15-15-15-15-15-|
B  :-x--x--x--x--x--x-|-x--x--x--x--x--x-|-x--x--x--x--x--x-|
Gb :16-16-16-16-16-16-|16-16-16-14-13-14-|13-13-13-13-13-13-|
Db :------------------|------------------|------------------|

Db :------------------|------------------|------------------|
Ab :------------------|------------------|------------------|
E  :----4-----4-----4-|------------------|------------------|
B  :----4-----4-----4-|-4--------4-----4-|----4-----4-----4-|
Gb :-0--2-----2-----2-|-4--------4-----4-|----4-----4-----4-|
Db :------------------|-2--------2-----2-|-0--2-----2-----2-|

E  :------------------|------------------|------------------|
B  :------------------|------------------|------------------|
Gb :-0--2-----2-----2-|------------------|------------------|
Db :------------------|-2--------2-----2-|-0--2-----2-----2-|

    "Hold you and..."
Db :------------------|-------------------|
Ab :------------------|17-17-17-17-/19-\--|
E  :18-18-18-18-18-18-|-x--x--x--x-----\--|
B  :-x--x--x--x--x--x-|14-14-14-14-/16-\--|
Gb :16-16-16-16-16-16-|-------------------|
Db :------------------|-------------------|

Db :------------------|-------------------|
Ab :------------------|-------------------|
E  :-2--2-----2-----2-|----4-----4------4-|
B  :-2--2-----2-----2-|----4-----4------4-|
Gb :-0--0-----0-----0-|-0--2-----2------2-|
Db :------------------|-------------------|

E  :------------------|-------------------|
B  :------------------|-------------------|
Gb :-0--0-----0-----0-|-0--2-----2------2-|
Db :------------------|-------------------|

Outro     
(both guitars)
    pm             pm      pm--|             pm      pm--|
Db :------------|------------|------------|------------|------------|
Ab :------------|------------|------------|------------|------------|
E  :------------|------------|------------|------------|------------|
B  :--4---4---4-|4-----2-----|--4---4---4-|4-----2-----|--4---4---4-|
Gb :--4---4---4-|4-----2-----|--4---4---4-|4-----2-----|--4---4---4-|
Db :0-2---2---2-|2-0---0---0-|0-2---2---2-|2-0---0---0-|0-2---2---2-|

E  :------------|------------|------------|------------|------------|
B  :------------|------------|------------|------------|------------|
Gb :------------|------------|------------|------------|------------|
Db :0-2---2---2-|2-0---0---0-|0-2---2---2-|2-0---0---0-|0-2---2---2-|

      pm      pm-|  
Db :------------|------------|------------|
Ab :------------|------------|------------|
E  :------------|------------|------------|
B  :4-----2-----|--4---4---4-|--*---------|
Gb :4-----2-----|--4---4---4-|--*---------|
Db :2-0---0---0-|0-2---2---2-|--*---------|

E  :------------|------------|------------|
B  :------------|------------|------------|
Gb :------------|------------|------------|
Db :2-0---0---0-|0-2---2---2-|--*---------|





Comments


Popular A Perfect Circle tabs & chords
The Noose 1 Bass Tabs
Gravity Chords
Gravity 1 Chords
The Noose 2 Chords
3 Libras Drum Tabs
Lullaby Tabs
Passive 3 Tabs
Peace Love And Understanding Tabs
Thinking Of You Tabs
Gravity Ukulele


Song lyrics



↑ Back to top | Tablatures and chords are parodies/interpretations of the original songs. You may use it for private study, scholarship, research or language learning purposes only
© 2014 AZChords.com Contact us | Privacy policy | DMCA | Add/correct tabs | Request tabs | Top 50 tabs