» » »

A Perfect Circle, Thinking Of You Tabs (ver.1)

Artists:  A B C D E F G H I J K L M N O P Q R S T U V W X Y Z # 

Thinking Of You Tabs (ver.1)

A Perfect Circle Tabs
 Rating:
4/5 (4 votes)
Thinking Of You lessons Tabs too difficult? Try these video lessons and learn fast
1
                Hunter Valentine @--)---

A Perfect Circle - Thinking Of You


This is one of the best songs off of their album, "Mer De Noms" 
The thing about this song is that it has alot of weird effects  
( created by a whammy pedal I believe ) I've tabbed this song 
after hearing it off of the album and bootlegs. I feel that it's 
close to correct. If you have anything to add/or commemt about, 
feel free to e-mail me. I'm going to write the parts down, then  
at the end explain how they differ live and CD versions. When I 
put a power chord part down, I'm only putting it down once, you can 
figure out how many times to play yourself. 

Keyboard Part: 
e|--21-15------19-18---------------| 
B|---------19---------17--20-19--17|-----17 is a pickup note to go 
G|---------------------------------|     back into part again 
D|---------------------------------| 
A|---------------------------------| 
E|---------------------------------| 

Main Part ( Verse ) figure out how many times to play each chord 
e|--------------| 
B|--------------| 
G|--2-----2-----| 
D|--2--4--2--2--| 
A|--0--4--0--2--| 
E|-----2-----0--| 

Chorus 
e|----------------------| 
B|----------------------| 
G|----------------7-----| 
D|--4--7--2----4--7--2--| 
A|--4--7--2----4--5--2--| 
E|--2--5--0----2-----0--| 

Verse Thing ( Listen for it ) 
e|--------| 
B|--------| 
G|--7--6--| 
D|--x--x--| 
A|--5--4--| 
E|--------| 

"Thinking of You" Part 
e|-----| 
B|-----| 
G|-----| 
D|--2--| over and over again 
A|--2--| 
E|--0--| 

The lead part at the end is just a bunch of sh*t, too hard for me 
Sorry! 

That's the whole song, here are the differences Live to CD: 
1. Live, they play the main part during the intro and 2nd verse 
2. The Keyboard part isn't played at the beginning Live, like on the 
CD version. 
3. The Verse Thing is played during the intro. 

Try to get a copy of a live version of this song, it's amazing!

Take Care @--)---
            
Submit corrections

comments powered by Disqus
↑ Back to top | A Perfect Circle Tabs for Thinking Of You. Lyrics for acoustic guitar and electric guitar. 1 Tablatures and chords are parodies/interpretations of the original songs. You may use it for private study, scholarship, research or language learning purposes only