» » »

A Perfect Circle, Thinking Of You Tabs (ver.3)

Artists:  A B C D E F G H I J K L M N O P Q R S T U V W X Y Z # 

Thinking Of You Tabs (ver.3)

A Perfect Circle Tabs
 Rating:
4/5 (4 votes)
Thinking Of You lessons Tabs too difficult? Try these video lessons and learn fast
1
                Main Part ( Verse ) figure out how many times to play each chord
 e|--------------|
 B|--------------|
 G|--2-----2-----|
 D|--2--4--2--2--|
 A|--0--4--0--2--|
 E|-----2-----0--|

 Chorus
 e|----------------------|
 B|----------------------|
 G|----------------7-----|
 D|--4--7--2----4--7--2--|
 A|--4--7--2----4--5--2--|
 E|--2--5--0----2-----0--|

 Verse Thing ( Listen for it )
 e|--------|
 B|--------|
 G|--7--6--|
 D|--x--x--|
 A|--5--4--|
 E|--------|

 "Thinking of You" Part
 e|-----|
 B|-----|
 G|-----|
 D|--2--| over and over again
 A|--2--|
 E|--0--|
            
Submit corrections

comments powered by Disqus
↑ Back to top | A Perfect Circle Tabs for Thinking Of You. Lyrics for acoustic guitar and electric guitar. 1 Tablatures and chords are parodies/interpretations of the original songs. You may use it for private study, scholarship, research or language learning purposes only