» » »

The Package Tabs (ver.3)

Artists:  A B C D E F G H I J K L M N O P Q R S T U V W X Y Z # 

The Package Tabs (ver.3)

A Perfect Circle
Rating:
0/5 (0 votes)

Hard to play? Try these video lessons and learn fast.
                A Perfect Circle
Thirteenth Step - The Package
Live from Lollapalooza 2003

**This is a live recording of a song thats unreleased. This sounds very accurate, it shouldn't differ from the album version thats being released this September**

Tune to C

Palm Mute = --
P.H  = P
Slight Bend = *
Bend = ^
Pull Off = P.O



Intro/Outro (Main riff):
**Played clean & with distortion in misc parts)

E -----------------------------------------------14-------       
B ---15--15--14--14--14------------17-----17--17---17-----       
G -16--16--16--16--16--16-16--16-16--16-16--16--16--------       
D --------------------------------------------------------      
A --------------------------------------------------------
E --------------------------------------------------------


E --------------------------------------------------------       
B ---15--15--14--14--14------------17-----17--17---17-----       
G -16--16--16--16--16--16-16--16-16--16-16--16--16--------       
D --------------------------------------------------------      
A --------------------------------------------------------
E --------------------------------------------------------

E ---------------------------------------------------       
B ---15--15--14--14--14--------------12*-12*-12*-12*-       
G -16--16--16--16--16--16-16--16-16------------------      
D ---------------------------------------------------      
A ---------------------------------------------------
E ---------------------------------------------------                                      
(Guitar 2)

E --17-/-15-/-14-\-17---------------------------
B ----------------------------------------------
G ----------------------------------------------
D ----------------------------------------------
A ----------------------------------------------
E ----------------------------------------------

Around 3:50 and
throughout the song            
                            (Misc parts and endings)
E ---------------------      ------------      ---------------------
B ------------P.O.-----      ---P.O.-----      -P.O.------9-10-9----
G ------------2-1-/-4--      ---2-1------      -2-1-/-4----------9--
D ---------------------      -------2----      ---------------------
A -3-3-3-2-22----------      ------------      ---------------------
E -1-1-1-0-00----------      ------------      ---------------------
           --
            
Hard to play? Try these video lessons and learn fast. | Correct




comments powered by Disqus
↑ Back to top | Tablatures and chords are parodies/interpretations of the original songs. You may use it for private study, scholarship, research or language learning purposes only