>
 >
The Package

The Package Guitar Tabs

A Perfect  Circle - The Package chords, tabs, tablatures, lyrics

Guitar lessons | Add/correct | Request | Top 50 tabs Artists:  A B C D E F G H I J K L M N O P Q R S T U V W X Y Z 0-9

The Package Guitar Tabs – A Perfect Circle

CD, Sheet music, Poster

Do you like The Package? Share with your friends now
Bass TabsBass Tabs v2Bass Tabs v3TabsTabs v2Tabs v3

Enjoy and be patient. This is a very powerful song. 

intro
e--------------------------------------------------------14--------
b--15----15---14----14----14--------1717---17----1717-------17-----
g-----16---16----16----16----16--16-----16----16------16-------16--
d------------------------------------------------------------------
a------------------------------------------------------------------
e------------------------------------------------------------------
verse
e------------------------------------------------------------------------
b------------------------------------------------------------------------
g------------------------------------------------------------------------
d--16-1616-14~--16h17--17-1717-17-17-17h19-16--1616-1614-141414-14------
a-------------------------------------------------------------------14~--
e------------------------------------------------------------------------
chorus
e--------------------------------------------------------14--------
b--15----15---14----14----14--------1717---17----1717-------17-----
g-----16---16----16----16----16--16-----16----16------16-------16--
d------------------------------------------------------------------
a------------------------------------------------------------------
e------------------------------------------------------------------
verse
e------------------------------------------------------------------------
b------------------------------------------------------------------------
g------------------------------------------------------------------------
d--16-1616-14~--16h17--17-1717-17-17-17h19-16--1616-1614-141414-14------
a-------------------------------------------------------------------14~--
e------------------------------------------------------------------------
chorus
e--------------------------------------------------------14--------
b--15----15---14----14----14--------1717---17----1717-------17-----
g-----16---16----16----16----16--16-----16----16------16-------16--
d------------------------------------------------------------------
a------------------------------------------------------------------
e------------------------------------------------------------------
riff a
e-----------------------------------------------------------------
b-----------------------------------------------------------------
g-----------------------------------------------------------------
d--3-3-3--2--xx—7p6—7/9--9-----3-3-3--2—-x-7p6—2bbbbb-------------
a--3-3-3--2--xx----------------3-3-3--2--x------------------------
e--1-1-1--0--xx----------------1-1-1--0--x------------------------
variations of this part
e---------------------------------------------------------
b-------------------------9-10-9--------------------------
g---------------------------------------------------------
d--3-3-3--2--xx—7p6—-7/9----------3-3-3--2--xx-7p6bbbbbb--
a--3-3-3--2--xx-------------------3-3-3--2--xx------------
e--1-1-1--0--xx-------------------1-1-1--0--xx------------
lead: chorus 
e--------------------------------------------------------14--------
b--15----15---14----14----14--------1717---17----1717-------17-----
g-----16---16----16----16----16--16-----16----16------16-------16--
d------------------------------------------------------------------
a------------------------------------------------------------------
e------------------------------------------------------------------
rythem chorus
e--------------------------------------------
b--------------------------------------------
g--7-9------------------7-9-----------------
d--7-9---2-2--2-2--3-2--7-9--2-2--2-2--2-2--
a--5-7---2-2--2-2--3-2--5-7--2-2--2-2--2-2--
e---------0-0--0-0--1-0-------0-0--0-0--0-0—

after four bars both: chorus
e--------------------------------------------
b--------------------------------------------
g--7-9------------------7-9-----------------
d--7-9---2-2--2-2--3-2--7-9--2-2--2-2--2-2--
a--5-7---2-2--2-2--3-2--5-7--2-2--2-2--2-2--
e---------0-0--0-0--1-0-------0-0--0-0--0-0—
riff a
e-----------------------------------------------------------------
b-----------------------------------------------------------------
g-----------------------------------------------------------------
d--3-3-3--2--xx—7p6—7/9--9-----3-3-3--2—-x-7p6—2bbbbb-------------
a--3-3-3--2--xx----------------3-3-3--2--x------------------------
e--1-1-1--0--xx----------------1-1-1--0--x------------------------
variations of this part
e---------------------------------------------------------
b-------------------------9-10-9--------------------------
g---------------------------------------------------------
d--3-3-3--2--xx—7p6—-7/9----------3-3-3--2--xx-7p6bbbbbb--
a--3-3-3--2--xx-------------------3-3-3--2--xx------------
e--1-1-1--0--xx-------------------1-1-1--0--xx------------
til’ the end
e--------------------------------------------------------14--------
b--15----15---14----14----14--------1717---17----1717-------17-----
g-----16---16----16----16----16--16-----16----16------16-------16--
d------------------------------------------------------------------
a------------------------------------------------------------------
e------------------------------------------------------------------

end.





Comments


Popular A Perfect Circle tabs & chords
Passive 4 Bass Tabs
Gravity Chords
The Outsider Chords
The Outsider 1 Chords
Judith 6 Tabs
Magdalena 2 Tabs
Over Tabs
Renholder 2 Tabs
Rose 1 Tabs
Weak And Powerless 2 Tabs


Song lyrics



↑ Back to top | Tablatures and chords are parodies/interpretations of the original songs. You may use it for private study, scholarship, research or language learning purposes only
© 2014 AZChords.com Contact us | Privacy policy | DMCA | Add/correct tabs | Request tabs | Top 50 tabs