» » »

A Perfect Circle, The Noose Bass tabs (ver.2)

Artists:  A B C D E F G H I J K L M N O P Q R S T U V W X Y Z # 

The Noose Bass tabs (ver.2)

A Perfect Circle Tabs
 Rating:
4/5 (4 votes)
The Noose lessons Tabs too difficult? Try these video lessons and learn fast
                Tuning: 5-string standard

Hey kids, there aren’t any tabs out for this song so ya.. Here ya go. Enjoy!
Also I know he doesn’t use a 5 string for this but that’s what I play with
And I wrote this tab for me to play it on my 5. Sorry if that doesn’t cut it 
for anyone, my bad. FYI this new Db, F#,… tuning is bull. don’t tune to that.
Use a 5 string.. that’s why they make ‘em.
Rate, Rate, Rate.. 


Drum and guitar till about 1:23

 Intro:
G||-----------------------------------------------------------------
D||-----------------------------------------------------------------
A||-----------------------------------------------------------------
E||-11--11-11--11--11-11--11--11-11-11-11/9--9-9--9--9-9--9--9-9-9-9
B||-----------------------------------------------------------------

G||---------------------------------------------------------||
D||---------------------------------------------------------||
A||---------------------------------------------------------|| [|-#-|] : play second time
E||-/14-14-14-14-14-14-14-14-[|-2-2-2-2-2-2-2/4-4-4-4-4-4-|]||
B||---------------------------------------------------------||

  Verse:
No bass till 2:50
G||---------------------------------------------------------------------||
D||---------------------------------------------------------------------||
A||---------------------------------------------------------------------|| [|#|] : optional
E||-2--2-2--2--2-2-(2)/4--4-4--4--4-4--4--4-4-[|4/x|]-------------------||   *   : strum
B||---------------------------------------------------4--4-4--4--4-4/16*||

							Fill #1
G||------------------------------------------------|-------------|
D||------------------------------------------------|-------------|
A||------------------------------------------------|-------------|
E||--------------------------------2--2-2--2--2-2*-|-2h4-2---h2--|        
B||-4--4-4--4--4-4/-2--2-2--2--2-2-----------------|-------4-----|

G||---------------------------------------------------------------------||
D||---------------------------------------------------------------------||
A||---------------------------------------------------------------------||
E||--------------------------------2--2-2--2--2-2*-/4--4-4--4--4-4------||           
B||-4--4-4--4--4-4/-2--2-2--2--2-2--------------------------------------||


 Outro (3:33)
G||-------------------------------------------------|
D||-------------------------------------------------|
A||-------------------------------------------------|
E||--------------------------------2--2-2--2--2-2*--|
B||-4--4-4--4--4-4/-2--2-2--2--2-2------------------|
									Fill #2
G||----------------------------------------------------------------|----------|
D||----------------------------------------------------------------|----------|
A||----------------------------------------------------------------|----------|
E||--------------------------------2--2-2--2--2-2--4--4-4--4-4-4--4|--2h4p2---|
B||-4--4-4--4--4-4/-2--2-2--2--2-2---------------------------------|--------4-|

						     Fill #3
G||-----------------------------------------------|-------|
D||-----------------------------------------------|-------|
A||-----------------------------------------------|-------|
E||--------------------------------2--2-2--2--2-2-|-2h4p2-|
B||-4--4-4--4--4-4/-2--2-2--2--2-2----------------|-------|

G||----------------------------------------------------------------||
D||----------------------------------------------------------------||
A||--------------------------------------------------------------*-||  -*-
E||--------------------------------2--2-2--2--2-2--4--4-4--4-4-4-4-||  -#- : Staccato
B||-4--4-4--4--4-4/-2--2-2--2--2-2---------------------------------||

Questions, comments, praises, disses can all be directed to me via AIM - fr0sty 55. 
Hope you enjoy this tab, this is one of my favorite tracks off the new album 
(thirteenth step). Props for Eyeless for doing a few of the new tunes too..
 beautiful W & P tab!


   Live to play,
   					    - Habitual
            
Submit corrections

comments powered by Disqus
↑ Back to top | A Perfect Circle Bass for The Noose. Lyrics for acoustic guitar and electric guitar. Tablatures and chords are parodies/interpretations of the original songs. You may use it for private study, scholarship, research or language learning purposes only