» » »

A Perfect Circle, The Noose Bass tabs (ver.1)

Artists:  A B C D E F G H I J K L M N O P Q R S T U V W X Y Z # 

The Noose Bass tabs (ver.1)

A Perfect Circle Tabs
 Rating:
4/5 (4 votes)
The Noose lessons Tabs too difficult? Try these video lessons and learn fast
                
	/ - Slide up
	\ - slide down
	h - hammer on
	p - pull off

Such a beautiful, powerful song :)

Many thanks to xxeyelessxx for the corrections

Bass starts at around 1:24

 E|------------------------------------------------------------------
 B|------------------------------------------------------------------
F#|-9--9--9--9--9--9--9-9-9-9-7--7--7--7--7--7-7-7-7/----------------
Db|------------------------------------------------------------------

 E|-------------------------------------------------------------------------
 B|-------------------------------------------------------------------------
F#|-12--12--12--12--12--12--12--12--12--12--12--12--12-12-12-12-12-12-12-12-
Db|-------------------------------------------------------------------------

 E|------------------------------------------------------------------
 B|------------------------------------------------------------------
F#|-9--9--9--9--9--9--9-9-9-9-7--7--7--7--7--7-7-7-7\----------------
Db|------------------------------------------------------------------

 E|-------------------------------------------------------------
 B|-------------------------------------------------------------
F#|-0--0--0--0--0--0--0-0-0-0-2--2--2--2--2--0-0-0-0------------
Db|-------------------------------------------------------------

Rest

Bass starts again at about 2:50
 E|--------------------------------------------------------------------------
 B|-7--7-7--7--7-7--7-9--9-9--9--9-9\-4--4-4--4--4-4/16-4--4-4--4--4-4-4-4-4-
F#|--------------------------------------------------------------------------
Db|--------------------------------------------------------------------------

3:05                            
 E|---------------------------------
 B|---------------------------------
F#|---------------------------------
Db|-2--2-2--2--2-2--0--0-0--0--0-0--

 E|-------------------------------------------------------------
 B|-------------------------------------------------------------
F#|-------------------------------------------------------------
Db|-5--5--5--5--5--5--5--5--5--5--5--5--5--5--5h7p5-------------
                                  x1          x2           x2
 E|---------------------------------|-----------|------------|
 B|---------------------------------|-----------|------------|
F#|---------------------------------|-----------|------------|
Db|-2--2-2--2--2-2--0--0-0--0--0-0--|5--5--5--5-|-7--7--7--7-|


Outro 3:33
 E|-----------------------------------------------------------------
 B|-----------------------------------------------------------------
F#|-9---9-9-9-9-9-9-9-9-9-9-9-9-9-9-7---7-7-7-7-7-7-7-7-7-7-7-7-7-7-
Db|-----------------------------------------------------------------

 E|-----------------------------------------------------------------
 B|-7---7-7-7-7-7-7-7-7-7-7-7-7-7-7-7---7-7-7-7-7-7-7-7-7-7-7-7-7-7-
F#|-----------------------------------------------------------------
Db|-----------------------------------------------------------------

 E|-----------------------------------------------------------------
 B|-----------------------------------------------------------------
F#|-9---9-9-9-9-9-9-9-9-9-9-9-9-9-9-7---7-7-7-7-7-7-7-7-7-7-7-7-7-7-
Db|-----------------------------------------------------------------

 E|-----------------------------------------------------------------
 B|-7---7-7-7-7-7-7-7-7-7-7-7-7-7-7-9---9-9-9-9-9-9-9-9-9-9-9-9-9-9\
F#|-----------------------------------------------------------------
Db|-----------------------------------------------------------------

 E|-----------------------------------------------------------------
 B|-----------------------------------------------------------------
F#|-----------------------------------------------------------------
Db|-2---2-2-2-2-2-2-2-2-2-2-2-2-2-2-0---0-0-0-0-0-0-0-0-0-0-0-0-0-0-

 E|-----------------------------------------------------------------
 B|-----------------------------------------------------------------
F#|-----------------------------------------------------------------
Db|-5---5-5-5-5-5-5-5-5-5-5-5-5-5-5-5---5-5-5-5-5-5-5-5-5-5-5-5-5-5-

 E|-----------------------------------------------------------------
 B|-----------------------------------------------------------------
F#|-----------------------------------------------------------------
Db|-2---2-2-2-2-2-2-2-2-2-2-2-2-2-2-0---0-0-0-0-0-0-0-0-0-0-0-0-0-0-

 E|-----------------------------------------------------------------
 B|-----------------------------------------------------------------
F#|-----------------------------------------------------------------
Db|-5---5-5-5-5-5-5-5---5-5-5-5-5-5-7---7-7-7-7-7-7-7---7-7-7-7-7-7-
            
Submit corrections

comments powered by Disqus
↑ Back to top | A Perfect Circle Bass for The Noose. Lyrics for acoustic guitar and electric guitar. Tablatures and chords are parodies/interpretations of the original songs. You may use it for private study, scholarship, research or language learning purposes only