» » »

Love In An Elevator Bass tabs (ver.3)

Artists:  A B C D E F G H I J K L M N O P Q R S T U V W X Y Z # 

Love In An Elevator Bass tabs (ver.3)

Aerosmith
Rating:
0/5 (0 votes)

Hard to play? Try these video lessons and learn fast.
                


Sign up to the my mailing list on my site to get hold of my 50 Essential Function Band 
Tabs for the Working Bass Player!

INTRO
x3
G|---------------------------------------|
D|--4--0-2----0--------------------------|
A|----------2----2---1-0----------2------|
E|------------------------3--5-0-----0---|



G|--------------------------------------------------------------------|
D|--4--0-2----0-------------------------------------------------------|
A|----------2----2---1-0----------2--------------------------5--------|
E|------------------------3-5---0----0-----5--------------------------|


VERSE
G|---------------------------------------------------|
D|---------------------------------------------------|
A|---------------------3------------------------3----|
E|-\-0-2-0-2-0-2 3---3-------0-2-0-2-0-2-3---3-------|

G|-----------------------------------------------------|
D|-----------------------------------------------------|
A|------------------------------------------------3----|
E|--0-2-0-2-0-2-3---3--/8\-----0-2-0-2-0-2-3---3-------|

G|---------------------------------------------------------|
D|---------------------------------------------------------|
A|--0--4-0--4-0-4-5---5----/10\---0--4-0--4-0-4-5---5---/10|
E|---------------------------------------------------------|

G|---------------------------------------------------|
D|---------------------------------------------------|
A|---0-4-0--4-0-4-5---5----/10---0-4--0-4-0-4-5---5--|
E|---------------------------------------------------|


CHORUS ONE
G|---------------------------------------------------------|
D|--9-9-9--9-9--9-9-9-9--9-9-9----9-9-9--9-9-9--9-9---9----|
A|---------------------------------------------------------|
E|---------------------------------------------------------|

G|------------------------------------------------------|
D|--9-9-9--9-9--9-9-9-9--9-9-9---9---9-9--9--9-8--7-----|
A|------------------------------------------------------|
E|------------------------------------------------------|


VERSE TWO
x2
G|--------------------------------------------------|
D|--------------------------------------------------|
A|--------------------3-----------------------------|
E|--0-2-0-2-0-2 3---3-------0-2-0-2-0-2-3---3---/8\-|

x1
G|-------------------------------------------------------|
D|-------------------------------------------------------|
A|--0--4-0--4-0-4-5---5----10---0--4-0--4-0-4-5---5---/10|
E|-------------------------------------------------------|

x1
G|--------------------------------------------------|
D|--------------------------------------------------|
A|---0-4-0--4-0-4-5---5----10---0-4--0-4-0-4-5---5--|
E|--------------------------------------------------|

CHORUS TWO
x2
G|---------------------------------------------|
D|--9-9-9-9-9-9-9-9-9-9-9-9-9-9-9-9-9-9-9-9----|
A|---------------------------------------------|
E|---------------------------------------------|

G|----------------------------------------------------|
D|----------------------------------------------------|
A|-------------------------------------------5-75-7---|
E|-0--0--0--0--0--0--0--0--0--0--0--0--0--0-----------|

G|---------------------------------------------|
D|--9-9-9-9-9-9-9-9-9-9-9-9-9-9-9-9-9-9-9-9----|
A|---------------------------------------------|
E|---------------------------------------------|


SOLO
x1
G|--------------------|
D|--------------------|
A|------------5-------|
E|--5-----------------|

x2
G|---------------------------------------|
D|--4--0-2----0--------------------------|
A|----------2----2---1-0----------2------|
E|------------------------3--5-0-----0---|

x1
G|--------------------|
D|--------------------|
A|------------5-------|
E|--5-----------------|

x2
G|---------------------------------------|
D|--4--0-2----0--------------------------|
A|----------2----2---1-0----------2------|
E|------------------------3--5-0-----0---|

x1
G|--------------------|
D|--------------------|
A|------------5-------|
E|--5-----------------|

x2
G|---------------------------------------|
D|--4--0-2----0--------------------------|
A|----------2----2---1-0----------2------|
E|------------------------3--5-0-----0---|

x1
G|-----------------------|
D|-----------------------|
A|------------5-------7--|
E|--5--------------------|


BRIDGE
G|-----------------------------------------------------------------------|
D|-----------------------------------------------------------------------|
A|-----------------------------------------------------------------------|
E|-------\0-----00-0------00------000-3-5---00--00 0-3-5-3-00--0/10-9-7-3|

x6
G|--------------|
D|--------------|
A|--------------|
E|00--00-0-3-5-3|

x1
G|------|
D|------|
A|5-----|
E|-----5|

x2
G|--------------|
D|--------------|
A|--------------|
E|00--00-0-3-5-3|

x1
G|------------------|
D|------------------|
A|0------0------0---|
E|--0--0---0--0---0-|

x3
G|--------------|
D|--------------|
A|--------------|
E|00--00-0-3-5-3|

x1
G|------|
D|------|
A|5-----|
E|-----5|

x3
G|--------------|
D|--------------|
A|--------------|
E|00--00-0-3-5-3|

x1
G|------|
D|------|
A|5-----|
E|-----5|


REPEAT CHORUS ONE
REPEAT VERSE


LAST CHORUS
G|---------------------------------------------|
D|--9-9-9-9-9-9-9-9-9-9-9-9-9-9-9-9-9-9-9-9----|
A|---------------------------------------------|
E|---------------------------------------------|

G|---------------------------------------------|
D|--9-9-9-9-9-9-9-9-9-9-9-9-9-9-9-9-9-9-9-9----|
A|---------------------------------------------|
E|---------------------------------------------|

G|----------------------------------------------------|
D|----------------------------------------------------|
A|-------------------------------------------5-75-7---|
E|-0--0--0--0--0--0--0--0--0--0--0--0--0--0-----------|

G|---------------------------------------------|
D|--9-9-9-9-9-9-9-9-9-9-9-9-9-9-9-9-9-9-9-9----|
A|---------------------------------------------|
E|---------------------------------------------|

G|----------------------------------------------------|
D|----------------------------------------------------|
A|-------------------------------------------5-75-7---|
E|-0--0--0--0--0--0--0--0--0--0--0--0--0--0-----------|

G|---------------------------------------------|
D|--9-9-9-9-9-9-9-9-9-9-9-9-9-9-9-9-9-9-9-9----|
A|---------------------------------------------|
E|---------------------------------------------|

G|----------------------------------------------------|
D|----------------------------------------------------|
A|-------------------------------------------5-75-7---|
E|-0--0--0--0--0--0--0--0--0--0--0--0--0--0-----------|

G|---------------------------------------------|
D|--9-9-9-9-9-9-9-9-9-9-9-9-9-9-9-9-9-9-9-9----|
A|---------------------------------------------|
E|---------------------------------------------|


AND SO ON UNTIL THE END...


| /  slide up
| \  slide down
| h  hammer-on
| p  pull-off
| ~  vibrato
| +  harmonic
| x  Mute note
| S  Slap
| P  Pop
            
Hard to play? Try these video lessons and learn fast. | Correct




comments powered by Disqus
↑ Back to top | Tablatures and chords are parodies/interpretations of the original songs. You may use it for private study, scholarship, research or language learning purposes only